Song name
# A B C D E F G H I J K L M N O P Q R S T U V W X Y Z

John Mayer - Queen Of California tab

This is my first tab ever! (EXCITED) It's probly not the best, but I hope it's
good enough! Leave feed back and dont be too mean!

KEY
p-pull of
h-hammer
x-palm slap

Capo-4th

INTRO/VERSE
1)---------x--------------------|
2)----0h1--x--1-------1---------|
3)---------x---------0-0--------|
4)----0h2--x--2p0-0h3---2-0-----|
5)---------x--------------------|
6)-3-------x--------------------|

Goodbye cold, goodbye rain
Goodbye sorrow, goodbye shame

PRE-CHORUS
[C]
Headed out west with my head phones on
[Am]
Boarding a flyght with a song in the back of my soul

VERS(play twice)
And no one knows

CHORUS
[D]
Just found out her ghost sliped down
[G]
the queen of california is stepin down, down...

1)-1-0----------|
2)----3-1-0-----|
3)---------2-0--|
4)------------0-|
5)--------------|
6)--------------|

VERS
Hello beauty, hello strange
Hello wonder, what's your name?

PRE-CHORUS
[C]
Looking for the sun that Neil Young hung
[Am]
After the gold rush of 1971

CHORUS

INSTRUMENTAL
???????????????????????????????????????????? hahaha sory

VERS
If you see her say, "Hello"
Just don't tell me, "I told you so"

PRE-CHORUS
[C]
Joni wrote Blue in her house by the sea
[Am}
I gotta believe there’s another color waiting on me...

VERS
To set me free

CHORUS
Tap to rate this tab
 
# A B C D E F G H I J K L M N O P Q R S T U V W X Y Z