Song name
# A B C D E F G H I J K L M N O P Q R S T U V W X Y Z

John Mayer - Good Love Is On The Way tab

This is my version for the Where The Light is version (Live in LA) of John Mayer's song 
Good Love Is On The Way. Quite the catchy song. Maybe it's not 100% accurate, but I did 
my best ;) Comments are welcome!

-------------------------------------------------------------------------------
                             GOOD LOVE IS ON THE WAY - John Mayer
-------------------------------------------------------------------------------
Tabbed by: boudieboom
E-mail:

Tuning: standard

Intro
e|--------------------------------2---3---0------|
B|-2-----------2---------2--------3---1---3------|
G|-2---0--0---2---0--0--2----0---2---2---1-------|
D|-2---0--0---2---0--0--2----0---0---3---2-------|
A|-0---x--x---0---x--x--0----x---x---x---2-------|
E|-----3b-3b------3b-3b------3---2---1---0-------|

e|-----------------------------------------------------------------| played 6 times
B|-2-2-2-2---------------------------------------------------------|
G|-2-2-2-2------------------------0--0--0--0-----------------------|
D|-2-2-2-2------4h5p0-2p0--------0--0--0--0------4h5p0-------------|
A|-0-0-0-0h4p0-------------4p0---x--x--x--0h4p0----------4p0-------|
E|--------------------------------3--3--3--------------------------|
*Release pressure one the A and G immediately when going for the hammer ons and pull offs

Verse 1
e|------------------------------------------------------------------------------|
B|----2---2----2-2----0-0-0-----------------------------------------------------|
G|----2---2----2-2----2-0-2-------------------------2-0-2----0h2--2--2----------|
D|--2----------2-2----0-0-0---x-x-0h2---------------2-0-2----0h2--2--2----------|
A|-0----0---0---------------------------x-x-4h5---0-------------0--0--0---------|
E|------------------3-----------------------------------------------------------|

e|---------------------------------|
B|---------------------------------|
G|-0h2p0------x-2------------------|
D|-------4-0-------5-4-----0-2-----|
A|-----------------------4---------|
E|---------------------------------|


e|----------------------------------------------------------------------|
B|----2----0h2--2---0h2--2-----------------------0h2-2-2--0h2-2-2-------|
G|----2----0h2--2---0h2--2-----0h2p0----2-------0h2-2-2--0h2-2-2--------|
D|--2-------------------------------------------------------------------|
A|-0-----0---------0----------------------------------------------------|
E|----------------------------3--------3-----x-3------------------------|

e|---------------------------------------------------------------------|
B|-----------------2-2-----2-2---------------------0-0-0---0-0-0-------|
G|--------2--2-----2-2-----2-2-----0h2p0----0-----0-0-0---0-0-0--------|
D|---0h2---2--2---------------------------4----4--0-0-0---0-0-0--------|
A|-0-------------------0-0-------------------------x-x-x---x-x-x-------|
E|-------------------------------3-----------------3-3-3---3-3-3-------|


Chorus (listen to the song to know when to strum the cords)
e|---------3--------------0-------------------------0-0-0-0-0---| Played 2 times
B|-3---2---3---2---2-2---5----------------2--2-2---5-5-5-5-5----|
G|-2---2---0---2---4-2-4/6--4h6-4\2------2--4-2-4/6-6-6-6-6-----|
D|-0---0---0---2---2-2--------------4-2--2--2-2-----------------|
A|---------x---0--------------------------0---------------------|
E|-2---2---3----------------------------------------------------|

Verse 2
Practically the same as verse 1, except for the fills

First fill                                     Second 'fill'
e|-----------------0-0--|  |-0-0-0----|
B|-----------------3-3--|  |-0-0-0----|
G|-0h2p0--0---0---0-0--|  |-0-0-0-----|
D|-------4-0-4-4--4-4--|  |-0-0-0-----|
A|---------------------|   |-x-x-x----|
E|---------------------|    |-3-3-3---|

Chorus

Bridge
 Pt.1 3 times                                       Pt. 2
e|---------------------------|    |-----------------------0---|
B|-----3----3----3--------2--|   |-----3----3----3-------0----|
G|---2----2----2----------2--|  |---2----2----2---------1-----|
D|-5----4----2----2-------2--|  |-5----4----2----2------2-----|
A|------------------------0--|   |-----------------------2----|
E|-------------------2-3-----|   |-------------------3-2-0----|

Solo, with wah
e|-------------------------------------------------------12-------------|
B|-----10-10-12b14---12b14-12b14r12p10----10b11--12b14--b12-10----------|
G|-/11-----------------------------------11-----------------------11----|
D|----------------------------------------------------------------------|
A|----------------------------------------------------------------------|
E|----------------------------------------------------------------------|

e|-----------------------------------------------------------------------------|
B|-13b15-12b14-12-10----10----10-10----10-10---17b19-17-15-17------------------|
G|--------------------11----11-------11-------------------------17-16-14-------|
D|-----------------------------------------------------------------------------|
A|-----------------------------------------------------------------------------|
E|-----------------------------------------------------------------------------|

e|-------------------------------------------------------------------------|
B|------------------------------------11b12-11-9---9-----------------------|
G|-17b19-16b18b16-14---16b18r16b18-------------12--10h11---------9-7-------|
D|--------------------16-----------------------------------12-12\9---------|
A|-------------------------------------------------------------------------|
E|-------------------------------------------------------------------------|

e|---------------------------|
B|-----10-12-12b14r12-10-----|
G|-/11-----------------------|
D|---------------------------|
A|---------------------------|
E|---------------------------|

Chorus
e|---------------------------------------------|
B|----10----10---10-------10-----10---10-------|
G|------9-----9----9--------12-----12---12-----|
D|-12----12----12---12--9-----9------9----9----|
A|---------------------------------------------|
E|---------------------------------------------|

e|---------------------------------------------------------|
B|----10------------10---10------10----------10--10--------|
G|------9------------------9--------9---------------9------|
D|-11----11-11h12-----12---12-11----11 11h12--12----12-----|
A|---------------------------------------------------------|
E|---------------------------------------------------------|

e|------------------------------0-0-0-0-0-0-0-0-0-0----|
B|----10------------10---10-----5-5-5-5-7-5-5-5-5-5----|
G|------9------------------9----6-6-7-7-7-6-6-7-7-7----|
D|-11----11-11h12-----12---12--7-7-7-7-7-7-7-7-7-7-----|
A|-----------------------------------------------------|
E|-------------------------------5-5-5-5-5-5-5-5-5-5---|

e|---------------------------------------------------------|
B|----10------------10---10------10----------10--10--------|
G|------9------------------9--------9---------------9------|
D|-11----11-11h12-----12---12-11----11 11h12--12----12-----|
A|---------------------------------------------------------|
E|---------------------------------------------------------|


e|---------------------------------12---------------------|
B|-12b14r12-10-10-12--10-12b14b15--12b14r12-10--10--------|
G|-------------------11-------------------------11--------|
D|--------------------------------------------------------|
A|--------------------------------------------------------|
E|--------------------------------------------------------|

Play  the last chorus twice, end with the bridge.
I didn't tab the very last part with the little solo.

************************************

| /   slide up
| \   slide down
| h   hammer-on
| p   pull-off
| ~   vibrato
| +   harmonic
| x   Mute note
| b   Bend
| pb  Pre-bend
| br  Bend release
| pbr Pre-bend release
| brb Bend release bend

************************************
Tap to rate this tab
# A B C D E F G H I J K L M N O P Q R S T U V W X Y Z