Song name
# A B C D E F G H I J K L M N O P Q R S T U V W X Y Z

John Mayer - Your Body Is A Wonderland Acoustic tab

|------X----------X---------X----------X----|
|------X----------X---------X----------X----|
|---10-X-10----10-X-10---10-X-10----10-X-10-|
|---10-X-10----10-X-10---10-X-10----10-X-10-|
|-8----X-8--------X---------X----------X----|
|------X----10----X-10-8----X-8--10----X-10-|

|------X----8-X----------X----8-X----|
|---10-X-8----X-8-----10-X-8----X-8--|
|---10-X-10---X-10----10-X-10---X-10-|
|------X------X----------X------X----|
|------X------X----------X------X----|
|-8----X-8----X-8--10----X-10---X-10-|

|-----X-------X-------X---------X----|
|---3-X-3---5-X-5---6-X-6----8--X-8--|
|---4-X-4---6-X-6---6-X-6----9--X-9--|
|---5-X-5---7-X-7---8-X-8----10-X-10-|
|-----X-------X-------X---------X----|
|-5---X-5-7---X-7-8---X-8-10----X-10-|
Tap to rate this tab
 
# A B C D E F G H I J K L M N O P Q R S T U V W X Y Z