Song name
# A B C D E F G H I J K L M N O P Q R S T U V W X Y Z

John Mayer - Clarity Acoustic chords

John Mayer - Clarity

I just changed up a previous version to reflect john mayer's acoustic set on youtube.
email: tonberryspawn@gmail.com

Credit below for transcribing most of it
Transcribed by: Gabe, with help from Andrew
Email: Supraslick15_14@Juno.com
AIM: JMFan70

Intro:
e---------------------|
B---------------------|
G------6--------------|
D--4---4--------------|
A--2---5--------------|
E--3------------------|

Chorus
e-----------5----------|
b-12---10---3----------|
g-12---11---2----------|
d-12---11---4----------|
a-10---9----2----------|
E----------------------|

Bridge
e--------------------------|
B--------------------------|
G--------14----------------|
D---14---15---15---13------|
A---15---13---13---11------|
E---13--------11---9-------|
Tap to rate this tab
# A B C D E F G H I J K L M N O P Q R S T U V W X Y Z