Song name
# A B C D E F G H I J K L M N O P Q R S T U V W X Y Z

John Mayer - Paper Doll tab

-------------------------------------------------------------------------------
                             John Mayer - Paper Doll
-------------------------------------------------------------------------------
Tabbed by:xmesh14x
E-mail:

Tuning:Standard

*NOTE*: I tabbed this on a 5 minute break. I will ensure it is correct and finish the 
tab once i am done with exams. Comment any corrections or suggestions. I plan on tabbing 
the whole song. Thank you! :)

Listen to the song and you`ll get the feel for it :p


*INTRO*
e|-------7--------------------------|
B|---------10-8------8-----8--------|
G|-------------------0-----0--------|
D|-----------------10-10-9----------|
A|--10------------------------------|
E|----------------------------------|

Or here`s a second way (if you can`t add the 17, don`t worry about it)
   - I recommend the first way ahah

e|---------------------------------|
B|-----12--------------------------|
G|--------14-12----12-----12-------|
D|-----------------17-----17-------|
A|--------------15---15-14---------|
E|--15-----------------------------|
Tap to rate this tab
# A B C D E F G H I J K L M N O P Q R S T U V W X Y Z