Song name
# A B C D E F G H I J K L M N O P Q R S T U V W X Y Z

John Mayer - I Dont Trust Myself With Loving You tab

-------------------------------------------------------------------------------
                  John Mayer - I Don't Trust Myself (With Loving you)                
-------------------------------------------------------------------------------
Tabbed by: Me
E-mail:

Tuning: Standard

This is a tab for both solos in the 'Live in LA' (Where The Light Is) version
of I Don't Trust Myself (With Loving You) by John Mayer. Fun solo to play, I
think. Please post suggestion if you want to share them. 

First solo is in Am, second one start in Am but shifts to Bm.

----------
1st solo
----------
sr=slow return. Return the bend slowly to the note that's behind the sr-sign.
e|---------------------------------------------------------------------------|
B|---------------------------------------------------------------------------|
G|-------------------------5----------------------------------7b9--7--5------|
D|------------5/7\5/7~-------7----------------------5/7\5/7--------------7---|
A|----3--5/7---------------------5\3--------3--5/7-------------------------7-|
E|-/5-----------------------------------3h5----------------------------------|

e|---------------10b12r10-b12---------------------------5--------------------|
B|---8/10~--/------------------10--/---8p5-----------------------------------|
G|------------------------------------------7b8-7--5--7---5~------------\----|
D|--------------------------------------------------------------7-------\----|
A|----------------------------------------------------------------7-----\----|
E|---------------------------------------------------------------------------|

e|---------------------------------------------------------------------------|
B|-8--10--13b15-r13.5b15------10-----13b15-r13.5b15----13b15-sr13p10------10-|
G|-------------------------12-----12---------------------------------(12)----|
D|---------------------------------------------------------------------------|
A|---------------------------------------------------------------------------|
E|---------------------------------------------------------------------------|

e|---------------------------------------------------------------------------|
B|-12-x-12--10------13b15-15r13---10------10---------------------------------|
G|--------------12--------------------12-------------------------------------|
D|---------------------------------------------------------------------------|
A|---------------------------------------------------------------------------|
E|---------------------------------------------------------------------------|


----------
2nd solo 
----------

First the finger-picked part:
e|-------------------------------------------10b12---10b12---10b12-10b12-----|
B|-8/10~------13b15r13-10------10----10--------------------------------------|
G|--------------------------12----12-----------------------------------------|
D|---------------------------------------------------------------------------|
A|---------------------------------------------------------------------------|
E|---------------------------------------------------------------------------|

e|-10b12r10p8--10----------10b12--10b12--10--8-------------------------------|
B|----------------10~--------------------------10-10~------------------------|
G|---------------------------------------------------------------------------|
D|---------------------------------------------------------------------------|
A|---------------------------------------------------------------------------|
E|---------------------------------------------------------------------------|

And the main part:
e|---------------------------------------------------------------------------|
B|-8h10-10----13/15-15b17--15b17---15b17---13-15--15--13--13---15----10-10---|
G|---------------------------------------------------------------------------|
D|---------------------------------------------------------------------------|
A|---------------------------------------------------------------------------|
E|---------------------------------------------------------------------------|

e|-----10--12--12b13---12---10--12-10h12p10----------------------------------|
B|-13---------------------------------------10---13b15r13--10-10-------------|
G|---------------------------------------------------------------12\---------|
D|---------------------------------------------------------------------------|
A|---------------------------------------------------------------------------|
E|---------------------------------------------------------------------------|

e|-------------------------------------------12------12--10------------------|
B|-12sb13--r12p10--13b15----10--12b13r12-10------(10)-----------13-----------|
G|----------------------------------------------------------12-----10--12-9--|
D|---------------------------------------------------------------------------|
A|---------------------------------------------------------------------------|
E|---------------------------------------------------------------------------|

e|---------------------------------------------------------------------------|
B|-------------------------------8---10--13b15----13----15b17---15-15b17-----|
G|-10-9---5-7b8r7p5---5---/9-/9----------------------------------------------|
D|------------------7--------------------------------------------------------|
A|---------------------------------------------------------------------------|
E|---------------------------------------------------------------------------|

e|---------------------------------------------------------------------------|
B|-15b17--15b17--15b17--15b17--15b18---15b17r15-13-13-----13-15b17----15b18--|
G|-----------------------------------------------------14--------------------|
D|---------------------------------------------------------------------------|
A|---------------------------------------------------------------------------|
E|---------------------------------------------------------------------------|

e|-------------------15------15b17---15-12-------12-15-----------------------|
B|-17r15-13------13-----13-----------------15b17-------15-13\----12b13---12--|
G|------------14-------------------------------------------------------------|
D|---------------------------------------------------------------------------|
A|---------------------------------------------------------------------------|
E|---------------------------------------------------------------------------|

e|---------------------------------------------------------------------------|
B|-10-10--13b15--13--10-12--13b15--13----15b17--15-13--15b17-15b17---15b17---|
G|---------------------------------------------------------------------------|
D|---------------------------------------------------------------------------|
A|---------------------------------------------------------------------------|
E|---------------------------------------------------------------------------|

e|---------------------------------------------------------------------------|
B|-15b17--15b17--15b17-15b17~------------------------------------------------|
G|---------------------------------------------------------------------------|
D|---------------------------------------------------------------------------|
A|---------------------------------------------------------------------------|
E|----------------------------------15\--------------------------------------|

Then, the key changes from Am to Bm:
e|--------------------------------------------------------------------13/14--|
B|-15b17---15---12------12-15-12h15p12----12--12--15b17--------12h15--11/12--|
G|-------------------14----------------14------------------14----------------|
D|---------------------------------------------------------------------------|
A|---------------------------------------------------------------------------|
E|---------------------------------------------------------------------------|

e|-14--------------13/14-------------13/14---------13/14--------13/14--------|
B|-12-------12h15--11/12-------12h15-11/12---12h15-11/12--12h15-11/12--12h15-|
G|------14-----------------14------------------------------------------------|
D|---------------------------------------------------------------------------|
A|---------------------------------------------------------------------------|
E|---------------------------------------------------------------------------|

e|-13/14--------13/14---------12--14-b15---15-15b17---12--14-12h14p12--------|
B|-11/12--12h15-11/12-12--15------------------------------------------15p12--|
G|---------------------------------------------------------------------------|
D|---------------------------------------------------------------------------|
A|---------------------------------------------------------------------------|
E|---------------------------------------------------------------------------|

e|---------------------------------------17--19b21--r19---17--19b21--r19---17|
B|-15b17--15--12-----12--12--15--17--19--------------------------------------|
G|---------------14----------------------------------------------------------|
D|---------------------------------------------------------------------------|
A|---------------------------------------------------------------------------|
E|---------------------------------------------------------------------------|

e|-19b21-r19-17-19b21-r19-----19--21--21b22---19--17-------------------------|
B|-----------------------------------------------------19b20r19--18b19-------|
G|-----------------------------------------------------------------------19--|
D|---------------------------------------------------------------------------|
A|---------------------------------------------------------------------------|
E|---------------------------------------------------------------------------|

e|------------19--21--21b22----19--19----------------------------------------|
B|-----17-\----------------------------19b20---19--20b22-r20---19--17---19\--|
G|-19------------------------------------------------------------------------|
D|---------------------------------------------------------------------------|
A|---------------------------------------------------------------------------|
E|---------------------------------------------------------------------------|

e|---------------------------------------------------------------------------|
B|-19b20-r19---15b17-15---14b15-14--12-14-12h14p12-----12--12--15sb\---------|
G|-------------------------------------------------14------------------------|
D|---------------------------------------------------------------------\/\/--|
A|---------------------------------------------------------------------------|
E|---------------------------------------------------------------------------|

e|---------------------------------------7-----------------------------------|
B|-----------------10------------------------------------10-12-12b14--r12p10-|
G|-----------7---------\9---7------7--------\9---7----11---------------------|
D|-----7--9-----9---------------/9----9--------------------------------------|
A|-/9------------------------------------------------------------------------|
E|---------------------------------------------------------------------------|

e|-----------------------------------------9------------10--12--9------------|
B|----10--------------------10--7-------7-----9-------10---------------------|
G|-11-----\9-\9--7-------7------------x--------------x-------------11--9---\7|
D|---------------------x-------------x--------------x------------------------|
A|--------------------x------------------------------------------------------|
E|---------------------------------------------------------------------------|

e|--------------------------------------17-----------------------------------|
B|------------------12---14-15---17b19------17b19r18b19r17p15-----15h17-15h17|
G|-10\9---7-----/11-------------------------------------------16-------------|
D|----------9----------------------------------------------------------------|
A|---------------------------------------------------------------------------|
E|---------------------------------------------------------------------------|

e|---------------------------------------------------------------------------|
B|-15-15-h17------------------------------------------------[Some pickup]----|
G|--------------/14-/14-\9---7-------------------7-\6-\2~---[switching and]--|
D|------------------------------9---------------------------[feedback until]-|
A|---------------------------------9\7--5----/9-------------[end]------------|
E|----------------------------------------7----------------------------------|



************************************

| /   slide up
| \   slide down
| h   hammer-on
| p   pull-off
| ~   vibrato
| +   harmonic
| x   Mute note
| b   Bend
| pb  Pre-bend
| br  Bend release
| pbr Pre-bend release
| brb Bend release bend

************************************
Tap to rate this tab
# A B C D E F G H I J K L M N O P Q R S T U V W X Y Z