Song name
# A B C D E F G H I J K L M N O P Q R S T U V W X Y Z

John Mayer - Paper Doll tab

Artist: John Mayer
Song: Paper Doll
Album: Paper Doll - Single

Standard Tuning

Intro/Verses:

E|---7s5-3-----------|\
B|-------------------| \
G|0---------5--4-----|  \
D|-------------------|  / Repeat until chorus.
A|-------------------| /
E|-------------------|/

Chorus: (C more half a measure, G for half a measure, and then D for a full measure)

"You're like 22 girls in one..."
    C   G   D
E|--0---3---2-------|\
B|--1---3---3-------| \
G|--0---0---2-------|  \
D|--2---0---0-------|  /  Repeat 3 times
A|--3---2-----------| /
E|------3-----------|/

Play Verse again until chorus

Play Chorus again

Continue playing the C,G,D pattern through the solo (which is basically the same 
as playing the chorus again)

Play Verse, then...

"Someone's gonna paint you another sky..."
    ?   C   G  
E|--0---3---3----|
B|--0---3---3----|
G|--0---0---0----|
D|--2---2---0----|
A|------3---2----|
E|----------3--2-|

Play Chorus, and continue to play the C,G,D pattern until song fades out.

And that's it! I think it sounds pretty accurate, but please let me know how I did! :)
Tap to rate this tab
 
# A B C D E F G H I J K L M N O P Q R S T U V W X Y Z