Song name
# A B C D E F G H I J K L M N O P Q R S T U V W X Y Z

John Mayer - Paper Doll tab

I know this tab is missing a few notes in the beginning and end, but those are much more 
straight-forward. I wanted to help people out with the more difficult parts. Enjoy!

------------------------------------------------------|
-----------------------------15--------12-12----------|
--14b16-16---14b16-16-----------14b----------12-------|
------------------------------------------------------|
------------------------------------------------------|
------------------------------------------------------|

-----------------------------------------------------|
-----------10----------------------------------------|
----10/11------9h11p9----------------9---------------|
-------------------------12--------9----9\7----------|
---------------------------------------------10------|
-----------------------------------------------------|

------------------------------------12--15-15/19------|
---------------------------12---15--------------------|
-------------------12/14------------------------------|
-----------9---12-------------------------------------|
---10/12----------------------------------------------|
------------------------------------------------------|

--------15--17b19r17----15----------------------------|
----17------------------------17b19r17----15----------|
------------------------------------------------------|
------------------------------------------------------|
------------------------------------------------------|
------------------------------------------------------|

------------------------------------------------------|
------------------------------------------------------|
---14b16r14-----12--14b16r14---12---------------------|
-------------------------------------14--12-----------|
------------------------------------------------------|
------------------------------------------------------|
Tap to rate this tab
 
# A B C D E F G H I J K L M N O P Q R S T U V W X Y Z