Song name
# A B C D E F G H I J K L M N O P Q R S T U V W X Y Z

John Mayer - Wildfire tab

-------------------------------------------------------------------------------
                             WILDDFIRE - John Mayer
-------------------------------------------------------------------------------
Tabbed by: Tom Arnold

Tuning: Standard

INTRO
Guitar 1 
e|---------11----------------------------------------------------------------| Repeat x8
B|---------11---13p11p9h13---------------------------------------------------|
G|---------------------------12p10p8-8-8-------------------------------------|
D|---------------------------------------------------------------------------|
A|---------------------------------------------------------------------------|
E|---------------------------------------------------------------------------|

Guitar 2
e|---------------------------------------------------------------------------|
B|--------11-13--------------------11-13-------------------------------------|
G|--------------10b12-10-8---------------10b12-10b12--8----------------------|
D|---------------------------------------------------------------------------|
A|---------------------------------------------------------------------------|
E|---------------------------------------------------------------------------|

VERSE 1

Eb
River's strong, you can swim inside it
You can string some lights up here beside it
                                                                              
G#                                                 Eb
Tonight the moon's so bright you could drive with your headlights out
A#                                         G#          Gm     Eb
'Cause a little bit of summer's what the whole year's all about

CHORUS

Eb
You look fine, fine, fine, put your feet up next to mine
We can watch that borderline get higher and higher
Eb
Say, say, say in a different kind of way
You and me been catchin' on like a wildfire

VERSE 2

Eb
Don't get up just to get another, you can drink from mine
 we can't leave each other
G#
                                      Eb
We can dance with the dead, you can rest your head on the shoulder if you want to get
older than me
A#                                    G#    Gm     Eb
'Cause a little bit of summer makes a lot of history

CHORUS

Eb
You look fine, fine, fine, put your feet up next to mine
We can watch that borderline get higher and higher
Eb
Say, say, say ain't it been some kind of day
You and me been catchin' on like a wildfire

BRIDGE

G# F# G# F#

G#
I got a rock from the river in my medicine bag
F#
Magpie Feather in my medicine bag

G# A#

CHORUS

Eb
Say, say, say ain't it been some kind of day
You and me been catchin' on like a wildfire

Outro

Eb G# Eb G# Eb G#
Tap to rate this tab
# A B C D E F G H I J K L M N O P Q R S T U V W X Y Z