Song name
# A B C D E F G H I J K L M N O P Q R S T U V W X Y Z

John Mayer - Slow Dancing In A Burning Room tab

e--------------x------------------------------------------------------------------------|
B--------------x-------------------- 5---5----------------------------------------------|
G-------9------x--8/9---8-----------4h6-4---5-------------------------------------------|
D--------------x--9/11--9--9/11--9----------4h6-----------------------------------------|
A--9/11--------x-----------9/11--9------------------------------------------------------|
E----------(9)--x--------------------(3)--(3)- (0)--------------------------------------|

e--------------x----------------------------------------------------------------------|
B--------------x-------------------- -------------------------------------------------|
G-------9------x--8/9---8-------------5----5----5--5----------------------------------|
D--------------x--9/11--9--9/11--9--- 4h6--4----4--6----------------------------------|
A--9/11--------x-----------9/11--9--- 0---- 0h7- 0--7---------------------------------|
E----------(9)--x--------------------- (0)--------------------------------------------|
Tap to rate this tab
# A B C D E F G H I J K L M N O P Q R S T U V W X Y Z