Song name
# A B C D E F G H I J K L M N O P Q R S T U V W X Y Z

John Mayer - Wildfire tab

Wildfire by John Mayer
----------------------

I tabbed this of the Letterman performance:
http://www.youtube.com/watch?v=_s9U3Lc8Byo


Main Riff:
e--11-11--11p8---8----------------|
B---8--8-------11----11p8---8-----|
G---8--8------------------10---8~-|
D---------------------------------|
A---------------------------------|
E---------------------------------|


Lead over the riff:
e------------------------------------------------------|
B-11--11b13---------------11--11b13--------------------|
G-----------10b12--10-7~------------10b12-10b12--10-7~-|
D------------------------------------------------------|
A------------------------------------------------------|
E------------------------------------------------------|



--------------------------------------------------------------------
If you have any comments or corrections, let me know!
Tap to rate this tab
# A B C D E F G H I J K L M N O P Q R S T U V W X Y Z