Song name
# A B C D E F G H I J K L M N O P Q R S T U V W X Y Z

John Mayer - On The Way Home tab

ON THE WAY HOME by John C. Mayer

Video Reference
1. http://www.youtube.com/watch?v=kUAAN-mK9VY

*When you find an "x" in the amount of times you should play a chord it means you can 
play it a non specific amount.
If there is anything you think may be wrong leave a comment and I'll update the tab 
accordingly, let's make this a 5 stars Tab.
Enjoy!

INTRO

e|----------------------------------------|---|
B|-(3)------------------------------------|-3-|
G|-(2)-2h4p2--0-------0-------------------|-2-|
D|--0------------0h4-----4p2p0---------0--|-0-| (x2)
A|------------------------------0h2p0-----|---|
E|----------------------------------------|---|
                                         (Strum)

THE REST

"The summer's over ... We never noticed where time was going"
e|-------------|-------------|
B|--3----3--3--|--3----3--3--|
G|--2----2--2--|--2----2--2--|
D|--0h4--5--4--|--0h4--x--0--|
A|-------------|-------4--0--|
E|-------------|-------------|
      (x3)          (x1)

"Do you remember when we first got here? ... You're empty-handed and heavy-hearted."
e|-------------|-------------|
B|--3----3--3--|--3----3--3--|
G|--2----2--2--|--2----2--2--|
D|--0h4--5--4--|--0h4--x--0--|
A|-------------|-------4--0--|
E|-------------|-------------|
      (x3)          (x1)

"But just remember on the way home ... Another good time coming down the line"
e|-----------|--------|--------|-----|
B|--3--3--3--|--3--3--|--2--3--|--3--|
G|--0--4--0--|--0--2--|--2--2--|--2--|
D|--0--4--0--|--0--0--|--2--0--|--0--|
A|--x--2--x--|--x--x--|--0--0--|--0--|
E|--3-----3--|--3--2--|--------|-----|
      (x1)      (x3)     (x1)     x

"You'll go back to love that's waiting, I'll unpack in a rented room"
e|-----------|-----|
B|--3--3--3--|--3--|
G|--2--x--2--|--0--|
D|--x--2--0--|--x--|
A|--4--0--0--|--2--|
E|-----------|-----|
      (x3)     (x1)

"How's that life you swear you're hating? Grass is greener that makes two"
e|-----------|--------|
B|--3--3--3--|--3--3--|
G|--2--x--2--|--0--2--|
D|--x--2--0--|--x--0--|
A|--4--0--0--|--2--0--|
E|-----------|--------|
      (x3)      (x1)

"But just remember on the way home ... I'll see you next week if you need my trust"
e|-----------|--------|--------|-----|
B|--3--3--3--|--3--3--|--2--3--|--3--|
G|--0--4--0--|--0--2--|--2--2--|--2--|
D|--0--4--0--|--0--0--|--2--0--|--0--|
A|--x--2--x--|--x--x--|--0--0--|--0--|
E|--3-----3--|--3--2--|--------|-----|
      (x1)      (x3)     (x1)     x

"Life ain't short, but it sure is small ... It don't come often, and it don't stay long"
e|----------------------|
B|--3----3----3----3----|
G|--2----2----2----2----|
D|--0h4--0h4--0h5--0h5--|
A|----------------------|
E|----------------------|
          (x6)

"But just remember on the way home ... A little bit of Heaven never hurt no one"
e|-----------|--------|--------|
B|--3--3--3--|--3--3--|--2--3--|
G|--0--4--0--|--0--2--|--2--2--|  (x2)
D|--0--4--0--|--0--0--|--2--0--|
A|--x--2--x--|--x--x--|--0--0--|
E|--3-----3--|--3--2--|--------|
      (x1)      (x3)     (x1)

And finish with this
e|-------------|-------------|
B|--3----3--3--|--3----3--3--|
G|--2----2--2--|--2----2--2--|
D|--0h4--5--4--|--0h4--x--0--|
A|-------------|-------4--0--|
E|-------------|-------------|
      (x3)            x


Hope it helped!


LYRICS

The summer's over. This town is closing.
They're waving people out of the ocean.
We have the feeling like we were floating.
We never noticed where time was going.

Do you remember when we first got here?
The days were longer the nights were hot here.
Now, it's September the engine's starting.
You're empty-handed and heavy-hearted.

But just remember on the way home, (oh oh oh)
That you were never meant to feel alone.
It takes a little while, but you'd be fine
Another good time coming down the line.

You'll go back to love that's waiting.
I'll unpack in a rented room.
How's that life you swear you're hating?
Grass is greener that makes two.

But just remember on the way home, (oh oh oh)
That you were never meant to feel alone.
Just look me up get back on the bus.
I'll see you next week if you need my trust.

Life ain't short, but it sure is small.
You get forever but nobody at all.
Life ain't short, but it sure is small.
You get forever but nobody at all.

It don't come often, and it don't stay long.

But just remember on the way home,
You don't ever have to feel alone.
Just stay on the run; get off the grid.
Hide yourself out like you know that I did,
And if you might find that you're running is done,
A little bit of Heaven never hurt no one.

END
Tap to rate this tab
# A B C D E F G H I J K L M N O P Q R S T U V W X Y Z