Song name
# A B C D E F G H I J K L M N O P Q R S T U V W X Y Z

John Mayer - Waiting On The World To Change tab

Waiting on the world to change
by: John Mayer

Edited by: Joachim Malling

Try to use vibrato the whole time if possible.

SOLO:

e:----------------------------------------------------------------------------|
B:-5s7--5h7s10---7h10s12--10h12s15---12h15-15s17-17s19-15s0-19b20b19b20b19b20-|
G:-----------------------------------------14s16-16s18-14s0-------------------|
D:----------------------------------------------------------------------------|
A:----------------------------------------------------------------------------|
E:----------------------------------------------------------------------------|

e:-----------------------------------------------------5-7-7s10--5h7s2--------|
B:-15--15-17b19-15-15-17--13-15-15--18p17p15-15-15s0-s7-------------------5h7-|
G:----------------------------------------------------------------------s7----|
D:----------------------------------------------------------------------------|
A:----------------------------------------------------------------------------|
E:----------------------------------------------------------------------------|

e:---------------------------------------------------------------------------|
B:-7s10--5h7s3---------------------------------------------------------------|
G:---------------------------------------------------------------------------|
D:---------------------------------------------------------------------------|
A:---------------------------------------------------------------------------|
E:---------------------------------------------------------------------------|
Tap to rate this tab
# A B C D E F G H I J K L M N O P Q R S T U V W X Y Z