Song name
# A B C D E F G H I J K L M N O P Q R S T U V W X Y Z

John Mayer - Queen Of California tab

e|--------------------------------------|
B|-----0h1-----1-----------1------------|
G|-----0-------0---0-----0-----0---0----|
D|-----0h2-----2h0---2h3-----2---0------|
A|--------------------------------------|
E|--3------x----------------------------| x4


                    (C)
e|--------------------------------------|
B|--------1-------1--------1----------1-|
G|--------------------------------------|
D|-----2--------2--------2---------2----|
A|--3---------3--------3---------3------|
E|--------------------------------------|


                    (Am)
e|--------------------------------------|
B|--------1-------1--------1----------1-|
G|--------------------------------------|
D|-----2--------2--------2---------2----|
A|--0---------0--------0---------0------|
E|--------------------------------------|


                    (D)
e|------2--------2-------2---------2----|
B|--------------------------------------|
G|----2-------2-------2---------2-------|
D|--0-------0--------0--------0---------|
A|--------------------------------------|
E|--------------------------------------|



E|--0---| 
B|--1---| 
G|--0---|  
D|--2---|  
A|--3---|  
E|--X---|



e|-1-0-------------|------------------------|
B|-----3-1-0-------|----0h1-----------------|
G|-----------2-0---|------------------------|
D|---------------2-|----0h2----(INTRO)------|
A|-----------------|------------------------|
E|-----------------|-3----------------------|
Tap to rate this tab
# A B C D E F G H I J K L M N O P Q R S T U V W X Y Z