Song name
# A B C D E F G H I J K L M N O P Q R S T U V W X Y Z

John Mayer - Bold As Love Acoustic tab

- NOTE -

This isn't an actual acoustic version this is just how I play it from two different tabs 
with one guitar (all credit goes to the guys who made this i'm putting this up so I can 
access it anytime and for anyone who may want it)

Chords used:

    A   E  F#m  D   A*  Bm  A**  D/F#  E*  D*  E**  D**
e|--5---0---2---5---0---7----0----7----7---7---12---10---|
B|--5---0---2---7---2---7----5----10---9---7---12---10---|
G|--6---1---2---7---2---7----6----7----9---7---13---11---|
D|--7---2---4---7---2---9----7----7----9---7---14---12---|
A|--7---2---4---5---0---9----x----9----7---9---14---12---|
E|--5---0---2---x---x---7----5----7----x---7---12---10---|

Tuning: Half-step down


A                 E                 F#m             D
  Anger he smiles towering in shiny metallic purple armor
A                 E
  Green Jealousy, envy waits behind him
F#m               D
  Her fiery green gown sneers at the grassy ground
D                          A*               Bm
  Blue are the life-giving waters taken for granted
               G
  They quietly understand
      D                    A                   Bm
  The once happy turquoise armies lay opposite ready
                     G
  But wonder why the fight is on


A**           E           F#m   G
  But they're all bold as love
A**             E           D/F#
  Yeah, they're all bold as love
A**       E*          F#m
  They're all bold as love
       D/F#          A**  Bm  D*  G
  Just ask the axis


     A         E**
  My red is so confident that he flashes
  F#m                            D
  Trophies of war and ribbons of euphoria
A                  E
  Orange is young, full of daring
F#m                         D
  But very unsteady for the first go around
D**                         A
  My yellow in this case is not so mellow
Bm                               G
  In fact I'm trying to say it's frightened like me
D**                              A
  And all these emotions of mine keep holding me from
Bm                    G
  Giving my life to a rainbow like you


A**             E*      F#m   G
  But I'm bold, bold as love
A**              E*          D/F
  Yeah I'm bold, Iím bold as love
A**         E*          F#m
  I'm bold, Iím bold as love
       D/F#         A**
  Just ask the axis
Bm               D**      G
  Yeah he knows, he knows everything

Solo

|--------------|-------------|-------------|-----------|-------|
|--------------|-------------|-------------|-----------|-------|
|-4b-4bbrp2-4b-|-4b-4p2-4vvv-|-4bbrbbr-----|-2---2-----|-2R--2-|
|--------------|-------------|---------2p4-|---4---4-5-|---2R--|
|--------------|-------------|-------------|-----------|-------|
|--------------|-------------|-------------|-----------|-------|

|--------------|----------|---------------------|---5----9-------|
|-----10-------|----------|--------------2------|----------10-10-|
|----9--12bbrb-|-12b-12-9-|-4b-4-2-2---2R-4p2-2-|---------9--9---|
|-/11----------|----------|-------4-2h4------4--|-/7---/9--------|
|--------------|----------|---------------------|----------------|
|--------------|----------|---------------------|----------------|

||---------||----------------------------||---------------||
||o----15-o||-18bbr-15-18p17p15----------||o-18b-10------o||
||--17b----||-------------------17-14vvv-||--------17p15--||
||---------||----------------------------||---------------||
||o-------o||----------------------------||o-------------o||
||---------||----------------------------||---------------||

|------------------------------------|-----------------------------|
|-18b-18-----------------------------|-21b-21b-21b-21b-21b-21b--21-|
|-------17p15--15-17p15--17bbr-15vvv-|------------------------19---|
|------------17--------17------------|-----------------------------|
|------------------------------------|-----------------------------|
|------------------------------------|-----------------------------|

|-19b-19---20b-20--21b-21bbr---|----------------------5-5--3-3-|
|-------21-------21---------21-|-15-14-------10-9-----5-5--3-3-|
|------------------------------|-14-14-------9--9-----6-6--4-4-|
|------------------------------|-14-14--14/--9--9-9/--7----5---|
|------------------------------|-------------------------------|
|------------------------------|-------------------------------|

|------------------------|---5---9---------|
|--------------2---------|-----------------|
|-4b-4-2-2---2R-4p2-2vvv-|----------14vvvv-|
|-------4-2h4------4-----|-/7--/9----------|
|------------------------|-----------------|
|------------------------|-----------------|
distortion turned off
|----------------------|-----------|-----------------------------|
|-8--8-----------------|-----------|-----------------------------|
|-7b-7p5---------5-----|-12/14vvvv-|-16b-16b-16b-16b-16b---14vvv-|
|--------5vvvv-----7p5-|-----------|---------------------16------|
|----------------------|-----------|-----------------------------|
|----------------------|-----------|-----------------------------|

|----------------------------------------|-17/-|----------------|
|----------------------------------------|-----|----------------|
|-16b-16b-16b-16b-16b-16b-16b-17b-14vvv--|-----|-16bbrp14-14vvv-|
|----------------------------------------|-----|----------------|
|----------------------------------------|-----|----------------|
|----------------------------------------|-----|----------------|

|--------------------------------||-------------------||
|--------------------------------||o-8--8----5-------o||
|---5-7b-7-5------------5-7bbr-5-||--7b-7p5-7-7-5-----||
|-/7--------7p5--5-7p5-----------||--------------7-5--||
|--------------/7------7---------||o-----------------o||
|--------------------------------||-------------------||

||-------------||--------------------||--------||
||o-8--8------o||-8--8---------------||o------o||
||--7b-7p5--5--||-7b-7p5-5-----------||--5b-7--||
||--------7----||-------7-7-5--------||--5b-7--||
||o-----------o||------------7-5-3-0-||o------o||
||-------------||--------------------||--------||

A**         E*      F#m   G
  I'm bold, bold as love
A**              E*          D/F
  Yeah I'm bold, Iím bold as love
A**         E*          F#m
  I'm bold, Iím bold as love
D/F#
  Yeah


D D D D D D A (x3)


b= bend
br=release bend
p= pulloff
h= hammer on
/= slide
v= vibrato
R= roll
o=repeat
Tap to rate this tab
# A B C D E F G H I J K L M N O P Q R S T U V W X Y Z