Song name
# A B C D E F G H I J K L M N O P Q R S T U V W X Y Z

John Mayer - Heartbreak Warfare tab

Please rate this tab (my own interpretation) ... and look for more under Bruno 
Frenchy... 40 more tabs await you... 
Enjoy !! 


Intro instrumental guitar/Drum : Bass 00:07
G|------------------------------------------------------------|-
D|------------------------------------------------------------|-
A|---------------------------3/5-55-55-----3/5-55-55--3-/-7---|- X2
E|-5-55-55--0--3--55-55---5~------------5-------------------5-|-

Verse 1 : 00:27
G|------------------------------------------------------------|-
D|------------------------------------------------------------|-
A|---------------------------3/5-55-55-----3/5-55-55--3-/-7---|- X2
E|-5-55-55--0--3--55-55---5~------------5-------------------5-|-
Lightning strikes
Inside my chest to keep me up at night
Dream of ways
To make you understand my pain

00:47
G|------------------------------------------------------------|-
D|------------------------------------------------------------|-
A|---------------------------3/5-55-55-----3/5-55-55--3-/-7---|- 
E|-5-55-55--0--3--55-55---5~------------5-------------------5-|-
Clouds of sulfur in the air
Bombs are falling everywhere
It's heartbreak warfare

00:57
G|---------------------------------------------------||-
D|---------------------------------------------------||-
A|---------------------------3/5-55-55-----3/5-55-55-||- 
E|-5-55-55--0--3--55-55---5~------------5------------||-
Once you want it to begin,
No one really ever wins
In heartbreak warfare

Chorus 1 : 01:05
G|-------------------------------------------------------|-
D|---------------------------------------2-0-------------|-
A|-5-4----------------5--------------2-0-------3-2-------|- 
E|-----2-22-2-4-5-55----2--2-4-5-55----------------5--55-|-
If you want more love why don't you say so?
If you want more love why don't you say so?

Verse 2 : 01:26
G|------------------------------------------------------------|-
D|------------------------------------------------------------|-
A|---------------------------3/5-55-55-----3/5-55-55--3-/-7---|- X2
E|-5-55-55--0--3--55-55---5~------------5-------------------5-|-
Drop his name
Push it in and twist the knife again
Watch my face
As I pretend to feel no pain, pain, pain..

01:46
G|------------------------------------------------------------|-
D|------------------------------------------------------------|-
A|---------------------------3/5-55-55-----3/5-55-55--3-/-7---|- 
E|-5-55-55--0--3--55-55---5~------------5-------------------5-|-
Clouds of sulfur in the air
Bombs are falling everywhere
It's heartbreak warfare

01:56
G|---------------------------------------------------||-
D|---------------------------------------------------||-
A|---------------------------3/5-55-55-----3/5-55-55-||- 
E|-5-55-55--0--3--55-55---5~------------5------------||-
Once you want it to begin,
No one really ever wins
In heartbreak warfare.

Chorus 2 : 02:05
G|---------------------------------------------------||------|-
D|---------------------------------------2-0---------||------|-
A|-5-4----------------5--------------2-0-------2-----||-2----|- 
E|-----2-22 2-4-5-55----2--2-4-5-55---------------5--||----5-|-
If you want more love why don't you say so?
If you want more love why don't you say so?
                                                      Just say so...

Instrumental 02:28
G|-----------------------|--------------------------5-7-5-----|-
D|-2--2/5-------2~-2/5~--|-2~2/5---------2~/5---5-7-----------|-
A|--------2~-2-5-------2~|--------2~-2-5------------------7-5-|- 
E|-----------------------|------------------------------------|-

02:46
G|-----------------------------------------------|-
D|-3—3333---3-333------5-555---5-5555----7-5-----|-
A|--------3--------3-5-------5-------------------|- 
E|-----------------------------------------------|-
How come the only way to know how high you get me 
is to see how far I fall?

02:56
G|-----------------------------------------------|-
D|-3-3333---3-333------5-555---5-5555------------|-
A|--------3--------3-5-------5------------5-7----|- 
E|-----------------------------------------------|-
God only knows how much I'd love you if you let me but I can't break through it all.

Bridge 03:05
It's a heart... heartbreak...
G|-------------------------------||-7--5-----------------|-
D|-7~~~~~~-----7~~~~~------------||------7--5------------|-
A|-----------7-------------------||------------8--7--5---|- 
E|-------------------------------||--------------------5-|-

03:15
G|------------------------------------------------------------|-
D|------------------------------------------------------------|-
A|---------------------------3/5-55-55-----3/5-55-55--3-/-7---|- X3
E|-5-55-55--0--3--55-55---5~------------5-------------------5-|-
I don't care if we don't sleep at all tonight
Let's just fix this whole thing now
I swear to God we're gonna get it right
If you lay your weapon down
Red wine and ambient
You're talking shit again, it's heartbreak warfare
Good to know it's all a game
Disappointment has a name, it's heartbreak, heartbreak.

Repeat till the end… 
G|------------------------------------------------------------|-
D|------------------------------------------------------------|-
A|---------------------------3/5-55-55-----3/5-55-55--3-/-7---|- XXX
E|-5-55-55--0--3--55-55---5~------------5-------------------5-|-
It's heartbreak warfare
It's heartbreak warfare
It's heartbreak warfare


End : 04:26


Tablature Legend
----------------

| S  slap
| P  pop
| x  mute note
| /  slide up
| \  slide down
| h  hammer-on
| p  pull-off
| g  grace note
| ~  vibrato
| ^  brush up
Tap to rate this tab
# A B C D E F G H I J K L M N O P Q R S T U V W X Y Z