Song name
# A B C D E F G H I J K L M N O P Q R S T U V W X Y Z

John Mayer - Love Is A Verb tab

LOVE IS A VERB by John C. Mayer

I don't make tabs that often so, sorry if it's not well presented.
And, obviously, if you find any mistakes just leave a comment and I'll update accordingly.

Video refference:
  http://youtu.be/rsYwxA3tztc


INTRO

e|------------------------------------------------|
B|------------------------12----------------------|
G|--9-----9--9---9--------9-----------------9-----|
D|--9-----9--9---9h11-----11----------7-----9-----|
A|--9h11--9--11--0--------0------7----7--7--9h11--|
E|--0----------------------------7h9-----9--0-----|


e|------------------------------------------------|
B|--7/9--9-----9--9------9h10--9--9---12----------|
G|--7/9--12/9--9--9------9h11--9--9---9-----------|
D|--7/9--9-----9--11-----9-----9--11--9-----------|
A|----------------0---------------0---9h11--------|
E|------------------------------------0-----------|


THE REST

These are the different chord progressions (parts) he uses throughout the song, use the 
video to know when to play each of them.

 Part 1
e|--------------------|
B|------12-----7------|
G|--9---9------8--9---|
D|--9---11-----9--9---|
A|--11--0---------11--|
E|--0----------7--0---|

 Part 2
e|--------------------|
B|------12-----7--9---|
G|--9---9------8--9---|
D|--9---11-----9--11--|
A|--11--0-------------|
E|--0----------7--9---|

 Part 3 (used just at 1:10 - 1:23)
e|---------------------------------------------------------|
B|------12-----7--9--7--9--9------9--9---9--------7--------|
G|--9---9------8--8--8--9--9------9--11--9--------8--9-----|
D|--9---11-----9--9--9--9--11-----9--9---9h11-----9--9-----|
A|--11--0-------------------------0--0---0-----------9h11--|
E|--0----------7--7--7--9--9----------------------7--0-----|

Part 4 (Ending)
e|----------------0---|
B|------12-----7--0---|
G|--9---9------8--1---|
D|--9---11-----9--2---|
A|--11--0---------2---|
E|--0----------7--0---|


(The "So you gotta show me" part is the same as Part 1, just change the strumming a little)


LYRICS

Love is a verb
It ain't a thing
It's not something you own
It's not something you scream

When you show me love
I don't need your words
Yeah love ain't a thing
Love is a verb
Love ain't a thing
Love is a verb

Love ain't a crutch
It ain't an excuse
No you can't get through love
On just a pile of I-O-Us

Love ain't a drug
Despite what you've heard
Yeah love ain't a thing
Love is a verb
Love ain't a thing
Love is a verb

So you gotta show, show, show me
Show, show, show me
Show, show, show me
That love is a verb

You gotta show, show, show me
Show, show, show me
Show, show, show me
That love is a verb

Love ain't a thing
Love is a verb

END


That's it. Hope it helped!
Tap to rate this tab
# A B C D E F G H I J K L M N O P Q R S T U V W X Y Z