Song name
# A B C D E F G H I J K L M N O P Q R S T U V W X Y Z

John Mayer - Somethings Missing tab

                       Intro

e-0-------------------------------------------|
b-0-------------------------------------------|
f-0--------0-----0-----0-----0----------------|
e-0------0-----0-----0-----0---2(p)0----------|
b-2----2-----4-----------------------4(p)0--2-|
e------------------2-----4--------------------|  x4

                       Verse (suggested picking)

-various picking through these chords

e---0--0--0-----------0--0--0-------------0--0--0-------------0--0------------|
b---0--0--0-----------0--0--0-------------0--0--0-------------0--0------------|
f---2--2--0(h)2(p)0---9--9--0(h)9(p)0-----5--5--0(h)5(p)0-----0--0--0---------|
e---0--0--0-----------0--0--0-------------5--5--5-------------0--0--0---------|
b-2----2--2-----------9--9--9-------------0--0--0-------------4--4--0(h)4(p)0-|
e-------------------0----0-------------5-----5-------------4-----4--4---------|

                      Chorus (Guitar I) x2

e-12--12--12--12--12--12--12--12--12--12--0--0--0--0--0--0--0--0--0--0-|
b-12--12--12--12--12--12--12--12--12--12--0--0--0--0--0--0--0--0--0--0-|
f-12--12--12--12--12--12--12--12--12--12--5--5--5--5--5--0--0--0--0--0-|
e-12--12--12--12--12--12--12--12--12--12--5--5--5--5--5--0--0--0--0--0-|
b-9-------9-------9---9--------9------9---0-----0-----0--4-----4-----4-|
e-0-------0-------0---9--------9------9---5-----5-----5--4-----4-----4-|

      Chorus (Guitar II) x8

e-----------------------------|
b-----------------------------|
f-12---------12---------12-12-|
e----11---------11------11-11-|
b-------12-9-------12-9-------|
e-----------------------------|
Tap to rate this tab
 
# A B C D E F G H I J K L M N O P Q R S T U V W X Y Z