Song name
# A B C D E F G H I J K L M N O P Q R S T U V W X Y Z

John Mayer - Tracing tab

                        John Mayer - Tracing

Tabbed By: Johnmayergal (A.K.A Shaylene)
if you have any corrections plz email me at johnmayerrox@hotmail.com


Intro (just reapeat this over for the intro)
e|-------x-------------------------------------------------------------------|
B|-------3-------------------------------------------------------------------|
G|-------2-------------------------------------------------------------------|
D|-------0-------------------------------------------------------------------|
A|-------x-------------------------------------------------------------------|
E|-------x-------------------------------------------------------------------|

Verse:
e|-------x------x-------3------x-------x-------3-----------------------------|
B|-------3------3-------3------3-------3-------3-----------------------------|
G|-------2------2-------0------2-------2-------0-----------------------------|
D|-------0------0-------0------x-------2-------0-----------------------------|
A|-------x------2-------x------2-------x-------x-----------------------------|
E|-------x------x-------3------x-------x-------3-----------------------------|

Pre-chorus:
e|-----------x------3-------x-------x--------3-------------------------------|
B|----3------2------3-------3-------3--------3-------------------------------|
G|----2------2------0-------2-------2--------0-------------------------------|
D|----x------2------0-------x-------2--------0-------------------------------|
A|----2------0------x-------2-------x--------x-------------------------------|
E|-----------x------3-------x-------x--------3-------------------------------|

Chorus 1:
e|-----x-------x-------3-----------------------------------------------------|
B|-----3-------3-------3-----------------------------------------------------|
G|-----2-------2-------0-----------------------------------------------------|
D|-----0-------2-------0-----------------------------------------------------|
A|-----x-------x-------x-----------------------------------------------------|
E|-----x-------x-------3-----------------------------------------------------|



the after you repeat all of that you last chorus is

Last chorus:
e|---x-----x------3-----x-----x------x-----x------x----x---------------------|
B|---3-----3------3-----3-----3------3-----3------3----2---------------------|
G|---2-----2------0-----2-----2------2-----2------0----x---------------------|
D|---0-----x------0-----x-----2------0-----x------2----2---------------------|
A|---x-----2------x-----2-----x------x-----2------2----x---------------------|
E|---x-----x------3-----x-----x------x-----x------x----x---------------------|

Then you repeat your first verse

Any corrections or constructive critisism is welcome just email or post dow below
Tap to rate this tab
# A B C D E F G H I J K L M N O P Q R S T U V W X Y Z