Song name
# A B C D E F G H I J K L M N O P Q R S T U V W X Y Z

John Mayer - City Love Acoustic tab

City Love Acoustic Solo by John Mayer
Drop D Tuning
This tab isn't a 100% accurate, but its close.This is from one of his live
performances, and I have only heard one of his live versions of city love.
Since I couldn't find this tab anywhere, I decided to tab it out myself. 
The rest of the song is basically the same as the original.
(1:56)						        (2:03)
|--------------------------------------------------------------10-12-10--|
|-10/12~------10-------------------------10-8------------------10-12-10--|
|--------9/11----11\9-7---------7------7------9h11-9h10p9/7--------------|
|-----------------------9-7-7-9----7h9-----------------------------------|
|------------------------------------------------------------------------|
|------------------------------------------------------------------------|
(2:04)					      (2:09)
|------------------------------------------------------------10----10-12-|
|10---------10-----------------------------------------10h12----12-------|
|-9h11p9-----9-----------------------------------------------------------|
|--------12----12---------12--12-12-12-12-12-12-12\----------------------|
|-----------------12-10-9------9--9-10-12--9--9-10\----------------------|
|------------------------------------------------------------------------|
(2:10)				 (2:13)
|-----------10-12p10-----------------------------------------------------|
|14-10~--------------14-10---------------------8-8----10-10----13\-------|
|------12------------------9-7-9-7----10-10-7------7---------7-----------|
|------------------------------------------------------------------------|
|------------------------------------------------------------------------|
|------------------------------------------------------------------------|
(2:17)
|------------------------------------------------------------------------|
|-10---------10--10---------------10-------------------------------------|
|--9h11-9-----9---9----------------9-------------------------------------|
|---------12-11--12-11p9-----------9h11----------------------------------|
|------------------------12--9-12----------------------------------------|
|------------------------------------------------------------------------|
tabbed by a.g.
Tap to rate this tab
# A B C D E F G H I J K L M N O P Q R S T U V W X Y Z