Song name
# A B C D E F G H I J K L M N O P Q R S T U V W X Y Z

John Mayer - Tori tab

Artist : John Mayer
Track  : Tori
Album  : Inside Wants Out
Tuning : Standard
Tabber : blakwyte(at)gmail.com

arranged for one or two guitars. the chords below the lead guitar part
are there to illustrate what's going on theoretically, and should
allow you to learn it faster and with more understanding. these chords
can also be played by a rythm guitarist if available (the intro and
prechorus chords are missing intentionally)

INTRO

e|-------0-----------------------------------------|
B|-------1---------3-----0---------------1-------0-|
G|-----------------2-----0-2-0---------0-------0---|
D|---2---------0---------2-----0h2---2-------2-----|
A|-0---0-------------0h2-2---------3-------2-------|
E|---------3-2---2-------0-------------------------|

e|-------0-------------------------|
B|-------1---------3-------3-----3-|
G|-----------------2-----0-----0---|
D|---2---------0-------4-----4-----|
A|-0---0---------------------------|
E|---------3-2---2---3-------------|

VERSE

   Am        Dsus9       Em        C       Em
e|-------0-----------------------------------------|
B|-------1---------3-----0---------------1-------0-|
G|-----------------2-----0-2-0---------0-------0---| X3
D|---2---------0---------2-----0h2---2-------2-----|
A|-0---0-------------0h2-2---------3-------2-------|
E|---------3-2---2-------0-------------------------|

e |0|       |0|         |0|       |0|     |0|
B |1|       |3|         |0|       |1|     |0|
G |2|       |2|         |0|       |0|     |0|
D |2|       |0|         |2|       |2|     |2|
A |0|       |0|         |2|       |3|     |2|
E |0|       |2|         |0|       |0|     |0|

   Am        Dsus9      G  
e|-------0-----------------|
B|-------1---------3----0--|
G|-----------------2----0--|
D|---2---------0-----0-----|
A|-0---0-------------------|
E|---------3-2---2---------|

e |0|       |0|        |3|
B |1|       |3|        |0|
G |2|       |2|        |0|
D |2|       |0|        |0|
A |0|       |0|        |2|
E |0|       |2|        |3|

PRECHORUS

e|-----5/7-7-2-0-|-----5/7-7-2-3-|
B|-----3/5-5-3-3-|-----3/5-5-3-3-|
G|-----2/4-4-0-0-|-----2/4-4-0-0-|
D|-----------2-2-|-----------2-2-|
A|-----------0-3-|-----------0-3-|
E|-0-0---------0-|-0-0---------0-|

CHORUS

   ?       ?       ?       ?       G       D       A+      A
e|-----0-------0-------0-------0-------3-------2-------0-------0---|
B|-----3-------3-------3-------3-------3-------3-------3-------2---|
G|---2---2---1---1---0---0---2---2---0---0---2---2---2---2---2---2-| X2
D|-0-------0-------0-------4-------0-------0-------2-------2-------|
A|-0-------0-------0-------0-------2-------0-------0-------0-------|
E|-0-------------------------------3-------------------------------|

e |0|     |0|     |0|     |0|     |3|     |2|     |0|     |0|
B |3|     |3|     |3|     |3|     |3|     |3|     |3|     |2|
G |2|     |1|     |0|     |2|     |0|     |2|     |2|     |2|
D |0|     |0|     |0|     |4|     |0|     |0|     |2|     |2|
A |0|     |0|     |0|     |0|     |2|     |0|     |0|     |0|
E |0|     |X|     |X|     |X|     |3|     |X|     |X|     |X|

SOLO

   Am         Dsus9  Em     C   Em
e|---------------------------------|
B|---------------------------------|
G|-7/9-9-9-9-/9-\7------7----------| X2
D|-----------------/4-5---4\2-0----|
A|---------------------------------|
E|---------------------------------|

e |0|        |0|    |0|    |0| |0|
B |1|        |3|    |0|    |1| |0|
G |2|        |2|    |0|    |0| |0|
D |2|        |0|    |2|    |2| |2|
A |0|        |0|    |2|    |3| |2|
E |0|        |2|    |0|    |0| |0|

e|----------------------------------------------|
B|----------------------------------------------|
G|-7/9-9-9-9-/11-/9-----/5-7-5-------7-7-11p9p7-|
D|-----------------\7-5--------/2-/4------------|
A|----------------------------------------------|
E|----------------------------------------------|
Tap to rate this tab
 
# A B C D E F G H I J K L M N O P Q R S T U V W X Y Z