Guitaretab - guitar tabs
Song name
# A B C D E F G H I J K L M N O P Q R S T U V W X Y Z

John Mayer - Who Did You Think I Was tab

-----------------------------------------------------------------------
John Mayer Trio - Who Did You Think I Was
-----------------------------------------------------------------------

Album: Try! John Mayer Trio Live In Concert
Tabbed By: Trevor Nierendorf

Tuning: Standard


Intro
e|----------------------------------------------------|
B|----------------------------------------------------|
G|----5h6-xx-----xx------------5h6-xx-----xx----------| 3 Times
D|--------xx-5h7-xx----------------xx-5h7-xx----------|
A|--------xx-----xx----5-----------xx-----xx----------|
E|--5-----xx-----xx-8b---8b--5-----xx-----xx-8b--5----|

Verse/Chorus
e|----------------------------------------------------|
B|----------------------------------------------------|
G|----5h6-xx-----xx------------5h6-xx-----xx----------| 
D|--------xx-5h7-xx----------------xx-5h7-xx----------|
A|--------xx-----xx----5-----------xx-----xx----5-----|
E|--5-----xx-----xx-8b---8b--5-----xx-----xx-8b---8b--|

Pre-Chorus
e|----------------------------------------------------|
B|----------------------------------------------------|
G|------2h4--4-2----------------2h4--4-2--------------|
D|---------------4-2---------------------4-2----------|
A|-------------------5-2---------------------5-2------|
E|--2-2------------------5-2--3-3-----------------5-2-|

Alternate Pre-Chorus
e|--2--3----|
B|--x--3----|
G|--2--4----|
D|--4--5----|
A|--x--5----|
E|--2--3----|

Solo
e|--------------------------------------------------------------------|
B|--------------------------------------------------------------------|
G|--------------12----12------------12----12--------------------------|
D|--7-7-9-10-12-12h14-12h14-15/17\--12h14-12h14-12-12-----15/17\------|
A|--------------------------15/17\--------------------15~-15/17\------|
E|--------------------------------------------------------------------|
[ Tab from: http://www.guitaretab.com/j/john-mayer/65446.html ]
e|--------------------------------------------------------------------|
B|--------------------------------------------------------------------|
G|-----------------------------------9--------------------------------|
D|-----------12-14b------15/17\--11b---11b-11-9-----------------------|
A|--12-12-15--------15~--15/17\-----------------11-10-9-7-9-7---------|
E|------------------------------------------------------------9\------|

e|----------------------------------------------------------------------------|
B|------------13-15b-15p13----13----15-15-15-etc.-----------------------------|
G|------12-14--------------14----14---------------14-12-----------------------|
D|--/14-------------------------------------------------14-12-14-12-14-12-----|
A|------------------------------------------------------------------------15--|
E|----------------------------------------------------------------------------|
Bridge
e|--3/\/\--2--3/\/\--2--3/\/\----|
B|--3/\/\--x--3/\/\--x--3/\/\----|
G|--4/\/\--2--4/\/\--2--4/\/\----|
D|--5/\/\--4--5/\/\--4--5/\/\----|
A|--5/\/\--x--5/\/\--x--5/\/\----|
E|--3/\/\--2--3/\/\--2--3/\/\----|
Mayer uses the tremolo on his strat for this part, and itís hard without it

Outro
e|---------------------------------------------------------8-5----------------|
B|-------------------------------------------------------------8p5h8p5--------|
G|----------5-----------5-7b-7p5---5--------5-----------5--------------7-5----|
D|--5-7-5-7---5-7---5-7----------7------5-7---5-7---5-7--------------------7--|
A|----------------------------------------------------------------------------|
E|----------------8-------------------5------------8--------------------------|

e|------------------------------------------------------|
B|------------------------------------------------------|
G|--------7---Too Fast--------5-----------5-7b-7p5------|
D|----5-7-----------------5-7---5-7---5-7----------7----|
A|------------------------------------------------------|
E|--5-------------------5-----------8-------------------|
Related for Who Did You Think I Was tab