Guitaretab - guitar tabs
Song name
# A B C D E F G H I J K L M N O P Q R S T U V W X Y Z

John Mayer - I Got A Woman tab

I Got A Woman
Tabbed by AC


Intro

e-----------------------------------------------------|
b-----------------------------------------------------|
g--11---------------------11----------------14--------| (x2)
d--10-10-12-10----10------10-10-12-10----10-14--------|
a--------------12---------------------12--------------|
E-----------------------------------------------------|

e-----------------------------------------------------|
b-----------------------------------------------------|
g--11---------------------11----------------14--------|
d--10-10-12-10----10------10-10-12-10----10-14--------|
a--------------12----6/7--------------12--------------|
E-----------------------------------------------------|

e---------------------------------------------------|
b---------------------------------------------------|
g--11-----------------------------------------------|
d--10-10-12-10-12---10----10----10------------------|
a----------------b12---------12----/7---------------|
E---------------------------------------------------|

Verse & Chorus (started after one verse of Mayer singing - 1:55)

e---------------------------------------------------|
b--5-----5-4/-5----4--4-----9-----------------------|
g--6--7--6-5/-6----5--5--7--7-----------------------|
d--5--6--5-4/-5----4--4--6--9-----------------------|
a--x--7--x----x----x--x--7--------------------------|
E--5-----5----5----4--4-----------------------------|
   t     t    t    t  t
e---------------------------------------------------|
b--5--5---4--4---5-----5-4/-4-----------------------|
g--6--6---5--5---6--7--6-5/-5-----------------------|
d--5--5---4--4---5--6--5-4/-4-----------------------|
a--x--x---x--x---x--7--x----x-----------------------|
E--5--5---4--4---5-----5----4-----------------------|
   t  t   t  t   t     t    t

e---------------------------------------------------|
b--5--5--5-5-5-5---4--4--4-4-4-4---5--5--5-5-5-5----|
g--6--6--5-6-5-6---5--5--4-5-4-5---6--6--5-6-5-6----|
d--5--5--5-5-5-5---4--4--4-4-4-4---5--5--5-5-5-5----|
a--x--x--x-x-x-x---x--x--x-x-x-x---x--x--x-x-x-x----|
E--5--5--5-5-5-5---4--4--4-4-4-4---5--5--5-5-5-5----|
   t  t  t t t t   t  t  t t t t   t  t  t t t t
[ Tab from: http://www.guitaretab.com/j/john-mayer/66170.html ]
e-----------------------------------------------------|
b-------------5--5--5-5-4/-5--5-5-5-5/----------------|
g--7-7--7-7---6--6--5-6-5/-6--6-5-6-5/----------------|
d--6-6--6-6---5--5--5-5-4/-5--5-5-5-5/----------------|
a--7-7--7-7---x--x--x-x----x--x-x-x-x/----------------|
E-------------5--5--5-5----5--5-5-5-5/----------------|
              t  t  t t    t  t t t t

                                (x8)
e---------------------------------------------------|
b--4--4--4-4-4-4----------------8/9--9--------------|
g--5--5--4-5-4-5---7-7--7-7-7---6/7--7--------------|
d--4--4--4-4-4-4---6-6--6-6-6---8/9--9--------------|
a--x--x--x-x-x-x---7-7--7-7-7-----------------------|
E--4--4--4-4-4-4------------------------------------|
   t  t  t t t t

(John also does this at 3:15)
e---------------------------------------------------|
b---------------------------------------------------|
g---------------------------------------------------|
d--------7--9/11------------------------------------|
a--7-7-9--------------------------------------------|
E---------------------------------------------------|


Solo
e----------------------------|-14-------------------------------------|
b----10-12-13-12-10----10-12-|----13-12-10----10-10-10/11-------------|
g-11----------------11-------|-------------11-------------------------|

e----12-12-14b-12----12-14b--|-17b19-17b18-17b18-15-------15b---------|
b-15--------------15---------|----------------------17-17-------------|

e----15-17b-15-17b-21-|-x-x-|-----17-15-17-17p15----15----------------|
b-17------------------|-5-5-|-/17----------------17----15-------------|
g---------------------|-6-6-|-----------------------------14----------|
d---------------------|-5-5-|-----------------------------------------|

e-15/17-17p15-------------|-x-x-|-------------------|-x-x-x-----------|
b------------ 17-15h17-17-|-5-5-|-15-15/17-13-15p13-|-5-5-5-----------|
g-------------------------|-6-6-|-------------------|-6-6-6-----------|
d-------------------------|-5-5-|-------------------|-5-5-5-----------|

e--------------------------------------|-x-|---x------------|---------|
b----10-10-12-10-13h14-10p8------------|-4-|-/14-10-8-------|---------|
g-11------------------------9-7--------|-5-|----------9-7h9-|---------|
d-------------------------------10-7-7-|-4-|----------------|---------|

e-x-|-10b--x-----------15-12-10-------|-x-x-x-x-x-|-7---7---7---7-----|
b-x-|-x----x--10-13-14----------13-10-|-5-5-4-4-4-|-9-9-9-9-9-9-9-9---|
g-7-|-x----11-------------------------|-6-6-5-5-5-|-7-7-7-7-7-7-7-7---|
d-6-|-x-------------------------------|-5-5-4-4-4-|---9---9---9---9---|
a-7-|-x-------------------------------|-----------|-------------------|

Related for I Got A Woman tab