Guitaretab - guitar tabs
Song name
# A B C D E F G H I J K L M N O P Q R S T U V W X Y Z

John Mayer - Hearts So Heavy tab

John Mayer
Heart's So Heavy

tunning: same as somethings missing
	e = stay the same
	b = stay the same
	G = tune down half a step to F#
	D = tune up full step to E
	A = tune up full step to B
	E = stay the same



all chords should be right though he may play them in different ways

INTRO

|-------0------------------------| 
|-------5h7--0----0------0----0--|
|--12^--0----7s9--7h9p7--5----5--|
|--12^-------0----0------0----6--|
|--0-----------------------------|
|--0-----------------------------|

play this twice and play it loosly, 
its an open tuning so it sounds good to 
play some open strings around the picked out notes


VERSE

|-0----0--0---0------0---| 
|-0----0--0---0------0---|
|-4p0--0--0h5-5------9---|
|-4----4--4---4------7---| 
|-5----5--5---5------0---| 
|-0----0--0---0------x---|

the main chord is 054500 but it sounds
better if you mess around with pull offs
and hammers on the g-string
 

PRE-CHORUS
[ Tab from: http://www.guitaretab.com/j/john-mayer/79327.html ]
|--0-----0--| 
|--4--0--4--|
|--5--9--5--|
|--7--7--0--| 
|--0--9--5--| 
|--x--0--0--|

CHORUS

|--0---0--|--0---0--0--|--x---5--4--5--4-|--0--|
|--0---0--|--0---0--0--|--7---7--5--7--5-|--0--|
|--9---5--|--7---5--4--|--5---7--5--7--5-|--5--|
|--9---4--|--9---0--6--|--7---7--5--7--4-|--4--|
|--7---5--|--9---5--5--|--7--------------|--5--|
|--7---0--|--9---0--0--|--7--------------|--0--|

7.7.7.5.7.x could be 14.12.14.12.0.0

INTERLUDE

|----------------------0--0--| 
|--0h5--5s7--0----0----0--0--|
|--0----0----7s9--9s5--4--2--|
|------------0----0----6--4--| 
|----------------------------| 
|----------------------------|

repeat twice 

REPEAT VERSE,PRE-CHOURSE,CHORUS

BRIDGE

|--0---0--| 
|--0---0--|
|--5---5--|
|--4---6--| 
|--5---7--| 
|--4---6--|

REPEAT CHORUS

OUTRO

|--0--0-----5--4--| 
|--0--0-----7--5--|
|--7--7h9---7--5--|
|--7--7-----7--4--| 
|--0--0-----------| 
|--x--x-----------|

x = muted note
h = hammer
p = pull off
^ = harmonic
s = slide




tabbed by: xan c
email: capertja@jmu.edu
Related for Hearts So Heavy tab