Song name
# A B C D E F G H I J K L M N O P Q R S T U V W X Y Z

John Mayer - I Dont Trust Myselfwith Loving You tab

Song: I don't trust myself(with loving you)
Artist: John Mayer
Album: Continuum
Tabbed By: acoustixforever


Intro Chords w/delay

e|---------------------------------------------------------------------|
B|---------------------------------------------------------------------|
G|---------------------------------------------------------------------| X6
D|--14--12-------------------------------------------------------------|
A|--12--10--12---------------------------------------------------------|
E|----------10---------------------------------------------------------|


Intro Line

e|---------------------------------------------------------------------|
B|---------------------------------------------------------------------|
G|-------------12--------------------------------12--------------------|
D|----------------12-10----10s12--------------------12-10--------------|
A|-12-14-15-12----------12-----------12-14-15-12----------12-12p10-----|
E|-----------------------------------------------------------------12--|

e|----------------------------------------------------------------------|
B|----------------------------------------------------------------------|
G|-------------12-------------------------------------------------------|
D|----------------12-10----10s12----------------------------------------|
A|-12-14-15-12----------12-----------12-14-15-14-12-10-10----12---------|
E|--------------------------------------------------------12----10------|


Verse, Chorus, & Bridge Chords w/delay

e|--------------------------------------------------------------------------|
B|--------------------------------------------------------------------------|
G|--------------------------------------------------------------------------|
D|-14--12-------------------------------------------------------------------|
A|-12--10--12---------------------------------------------------------------|
E|---------10---------------------------------------------------------------|


Solo

e|------------------------------------------------------b10----------------|
B|-----------------------------------------------8s10-------10-------------|
G|----------------5-----------------------b7p5-----------------12p9--------|
D|--------5h7-5h7---7-------------5h7-5h7------7--------------------12p10--|
A|------7-------------5s0-------7------------------------------------------|
E|--5h8---------------------5h8--------------------------------------------|

e|-------------------------------------------------------------------------|
B|-----------------------13-----------------8---------8--------------------|
G|--------------12-13-14----14-14-7p5---------9p7s5s7---9p7s5s7s14---------|
D|----10------------------------------7p5----------------------------------|
A|-12----12p0-----------------------------7--------------------------------|
E|-------------------------------------------------------------------------|

s=slide
p=pull off
b=bend


that's basically it, hope you like this song
Tap to rate this tab
# A B C D E F G H I J K L M N O P Q R S T U V W X Y Z