Song name
# A B C D E F G H I J K L M N O P Q R S T U V W X Y Z

John Mayer - How Much It Hurts tab

How Much It Hurts
John Mayer
(Tabbed by Nathan Jensen)
Basic Tuning

There was one other tab to this but i couldn't hear all the right notes i wanted
hopefully this one will do it.:)

intro/verse
e--------------------------------------------    -------|
B----7-----7-----7-----7-----7-----7-----7---    -7---5-|
G---0-0---0-0---0-0---0-0---0-0---0-0---0-0--    --0----|
D--7---7-7---7-7---7-7---7-7---7-7---7-7---7- x3 ---7---|
A-5-----5-----4-----4------------------------    -------|
E-------------------------7-----7-----5------    -------|
   Speak, Speak your mind...                     last time end with this
   Im wrong, Im wrong again

Pre-Chorus
e-----------------------               -------|
B----3-----5-----7---5--               -3-5-5-|
G---0-0---0-0---0-0-----               -4-6-7-|
D--5---5-7---7-7---7---- x3            -5-7-9-|
A-----------------------               -------|
E-3-----5-----0---------               -3-5-7-|
You say there's nothing wrong...
2nd time through strum this -----------^^

Chorus
e------------------------------------------------------|
B----7-----7-----7---5---5-----7-----7-----7---5---5---|
G---0-0---0-0---0-0---0---0---0-0---0-0---0-0---0---0--|
D--7---7-7---7-7---7---7---7-7---7-7---7-7---7---7---7-|
A-5-----5-----4----------------------------------------|
E---------------------------7-----7-----5--------------|
If your listenin this is how much it hurts...


e----------|
B-3--5--5--|
G-4--6--7--|
D-5--7--9--|
A----------|
E-3--5--7--|
Oh you say there's nothing. . . .(last time)

Outro
Basically same thing as chorus with added x1202x the second time.
e-----------------------------------------------|
B----7-----7-----7-----2-----7-----7-----7---5--|
G---0-0---0-0---0-0---0-0---0-0---0-0---0-0-----|
D--7---7-7---7-7---7-2---2-7---7-7---7-7---7----|
A-5-----5-----4-----1---------------------------|
E-------------------------7-----7-----5---------|
  If your listenin this is how much...

*****(questions or comments e-mail me at (gtrnathan@yahoo.com)*****

Lyrics

Speak, speak your mind
Your always telling me I need to open mine
And wait, wait your turn
Then shut me out cause you've got nothing left to learn

Oh, you say there's nothing wrong with being proud
So tell me what you love and say it loud
Now here's the dose that you've been dishing out
If you're listening this is how much it hurts
If you're listening this is how much it hurts

Oh, I'm wrong
I'm wrong again
But not because of where I stand but where I've been
And it burns
Oh, you know it burns like hell

To know there's nothing I can do but wish you well

You say there's nothing wrong with being proud
So tell me what you love and say it loud
I've been good enough to stay and hear you out
But you're wrong
You're never wrong

Oh, you say there's nothing wrong with being proud
Ya, so tell me what you love and say it loud
I've been giving you the benefit of the doubt

If you're listening this is how much it hurts
If you're listening this is how much it hurts
If you're listening this is how much it hurts
If you're listening this is how much it hurts
Tap to rate this tab
 
# A B C D E F G H I J K L M N O P Q R S T U V W X Y Z