Song name
# A B C D E F G H I J K L M N O P Q R S T U V W X Y Z

John Mclaughlin - Amelias Missing tab

Amelia's Missing - Indiana Album - John McLaughlin

Please, for the love of god, do NOT put this on distortion or anything like that to ruin 
song. I'm pretty sure this is close to how the song is played. It's my first tab, so 
it easy on the ratings. =p

thanks guys.

Standard Tuning
(EADGBe)

Intro - This is on the piano/keyboard in the song, but sounds close to the same.

10h12h13--12--10------10-----------------------------------------------12-|
------------------13------10--13---------------10--13----------10--13-----|
----------------------------------12-------10----------12--10-------------|
--------------------------------------------------------------------------|
--------------------------------------------------------------------------|
--------------------------------------------------------------------------|

verse 1 - strum at your desired pattern

-5---6---1---8----------------|
-6---6---1---8----------------|
-7---7---2---9----------------|
-7---8---3---10---------------|
-5---8---3---10---------------|
-----6---1---8----------------|

chorus - strum at your desired pattern

-5---6---3---6----------------|
-6---6---3---6----------------|
-7---7---4---7----------------|
-7---8---5---8----------------|
-5---8---5---8----------------|
-----6---3---6----------------|

Verse 2 (repeat Verse 1)

chorus
Tap to rate this tab
# A B C D E F G H I J K L M N O P Q R S T U V W X Y Z