John Me - Love Is My Drug tab

Hey, this is a tab of the first part (the quiet part) of "Love Is My Drug"
by John Me. This is my very first tab, so please rate it (:
And feel free to mail me, if you have ideas for improvements (:

Hope you can use my tab, enjoy! :D

Intro:
      Am        I'm not sure if there is pull-off's, decide yourself ...

e---------------------------------------------------------------3p0-----|
B-------0-----1-----3-----1-----1p0-----0-----1-----3-----1-------------|
G-----2-----2-----2-----2-----2-------2-----2-----2-----2-----2---------|
D-----------------------------------------------------------------------|
A---0-----0-----0-----0-----0-------0-----0-----0-----0-----0-----------|
E-----------------------------------------------------------------------|


The lyrics underneath are just the words that hits the first bass tone in each chord . . .

Intro-chorus:

   "Love is ..." "medicine..."   "stay with..."  "with me honey..."
     Am             F               C               G
e-----------------------------------------------------------------------|
B-------0-----0---------1-----0---------1-----1----------2-----2--------|
G-----2-----2-----2---2-----2-----2---0-----0-----0----0-----0----------|
D-----------------------------------------------------------------------|
A---0-----0-----0-------------------3-----3-----3----2-----2-----3-2----|
E-------------------1-----1-----1---------------------------------------|

                 "heroine..."    "stay with..."  "with me honey..."
                        NOTICE!
     Am ↓           F   ↓     ↓     C               G
e-----------------------------------------------------------------------|
B-------1-----0---------0-----1---------1-----1---------2-----2---------|
G-----2-----2-----2---2-----2-----2---0-----0-----0---0-----0-----------|
D-----------------------------------------------------------------------|
A---0-----0-----0-------------------3-----3-----3---2-----2-----3-2-----|
E-------------------1-----1-----1---------------------------------------|

    Am             F               C               G
e-----------------------------------------------------------------------|
B-------0-----0---------1-----0---------1-----1---------2-----2---------|
G-----2-----2-----2---2-----2-----2---0-----0-----0---0-----0-----------|
D-----------------------------------------------------------------------|
A---0-----0-----0-------------------3-----3-----3---2-----2-----3-2-----|
E-------------------1-----1-----1---------------------------------------|


                                                        NOTICE!
    Am             F               C               G    ↓     ↓
e-------------------------------------------------------2-----2---------|
B-------1-----0---------0-----1---------1-----1--------(2)---(2)--------|
G-----2-----2-----2---2-----2-----2---0-----0-----0---0-----0-----------|
D-----------------------------------------------------------------------|
A---0-----0-----0-------------------3-----3-----3---2-----2-----3-2-0---|
E-------------------1-----1-----1---------------------------------------|


   MrMikFri

   mikkel2106@hotmail.com
Tap to rate this tab
 
# A B C D E F G H I J K L M N O P Q R S T U V W X Y Z