John Mellencamp - Hurts So Good tab

-------------------------------------------------------------------------------
			     HURTS SO GOOD - John Mellencamp
-------------------------------------------------------------------------------
Tabbed by: Xisco

Tuning:Standard


INTRO

e|---0--0--0--0--------0----0------0-----------------------------------------|
B|---3--3--3--2--------2----2------2-----------------------------------------|
G|---4--4--4--2--------2----2------2-----------------------------------------|
D|---2--2--2--2--------4----2------2---------- Repeat... (3rd Time to Bridge)
A|---0--0--0--0--------0----0------0-------------------- (4th Time End)------|
E|---0--0--0--0--------X-------0-3-------------------------------------------|

VERSE

e|---0--------0--------2--------2--------0--------0--------2--------2--------|
B|---2--------0--------2--------3--------2--------0--------2--------3--------|
G|---2--------X--------2--------2--------2--------X--------2--------2--------|
D|---2--------2--------4--------0--------2--------2--------4--------0--------|
A|---0--------2--------4--------0--------0--------2--------4--------0--------|
E|---0--------0--------2--------X--------0--------0--------2--------X--------|

e|---0--------0--------0--------0--------2--------2--------0-----------------|
B|---2--------0--------2--------0--------2--------3--------0-----------------|
G|---2--------X--------2--------X--------2--------2--------X-----------------|
D|---2--------2--------2--------2--------4--------0--------2-----------------|
A|---0--------2--------0--------2--------4--------0--------2-----------------|
E|---0--------0--------0--------0--------2--------X--------0-----------------|

CHORUS

e|---0--------0--------0--------0--------2----2----0----0----0---------------|
B|---2--------0--------2--------0--------2----3----0----2----0---------------|
G|---2--------X--------2--------X--------2----2----X----2----X---------------|
D|---2--------2--------2--------2--------4----0----2----2----2---- Repeat Intro
A|---0--------2--------0--------2--------4----0----2----0----2---------------|
E|---0--------0--------0--------0--------2----X----0----0----0---------------|

BRIDGE

e|---2--------0--------2--------2----0----2--------0----0--------------------|
B|---3--------2--------3--------2----2----3--------2----0--------------------|
G|---2--------2--------2--------2----2----2--------2----X--------------------|
D|---0--------2--------0--------4----2----0--------2----2--------------------|
A|---0--------0--------0--------4----0----0--------0----2--------------------|
E|---X--------0--------X--------2----0----X--------0----0--------------------|

e|-------------------------------------------------------0-------------------|
B|-------------------------------------------------------0-------------------|
G|-------------------------------------------------------X-------------------|
D|-------------------------------------------------------2---- Repeat Chorus 
A|---2---2--3----4----2---2--3----4----2---2--3----4-----2-------------------|
E|---0---0--0----0----0---0--0----0----0---0--0----0-----0-------------------|



************************************

| /   slide up
| \   slide down
| h   hammer-on
| p   pull-off
| ~   vibrato
| +   harmonic
| x   Mute note
| b   Bend
| pb  Pre-bend
| br  Bend release
| pbr Pre-bend release
| brb Bend release bend

************************************
Tap to rate this tab
 
# A B C D E F G H I J K L M N O P Q R S T U V W X Y Z