Song name
# A B C D E F G H I J K L M N O P Q R S T U V W X Y Z

John Mellencamp - Youve Got To Stand For Somethin tab

Help us improve GuitareTab! Take a short survey!
-------------------------------------------------------------------------------
        you've got to stand for somethin' - john mellencamp
-------------------------------------------------------------------------------
Tabbed by: tonyisawesome
Email:tonydude@hotmail.com

Tuning:Standard
    Am              C                    D               C
e|--0--0-0--0--0-0--0--0-0-------------|-2--2-0--2--2-0--0--0-0-------------|
B|--1--1-0--1--1-0--1--1-0-------------|-3--3-0--3--3-0--1--1-0-------------|
G|--2--2-0--2--2-0--0--0-0-------------|-2--2-0--2--2-0--0--0-0-------------|
D|--2--2-0--2--2-0--2--2-0--0----------|-0--0-0--0--0-0--2--2-0--0----------|
A|--0--0-0--0--0-0--3--3-0----5b6r5--3-|-0--0-0--0--0-0--3--3-0----5b6r5--3-|
E|--0--0-0--0--0-0--0--0-0-------------|-0--0-0--0--0-0--0--0-0-------------|

thats pretty much it, the rest of the song is mostly just that same chord progression if 
has anything to add e-mail me or simply post your own tab


| /  slide up
| \  slide down
| h  hammer-on
| p  pull-off
| ~  vibrato
| +  harmonic
| x  Mute note
===============================================================================
Related for Youve Got To Stand For Somethin tab