Song name
# A B C D E F G H I J K L M N O P Q R S T U V W X Y Z

John Michael Montgomery - Heaven Sent Me You tab

Artist: John Michael Montgomery  
Song: Heaven Sent Me You
Album: John Michael Montgomery
Track: 9
Tuning: Standard(EADGBe)
Capo: None
Guitar: Acoustic
Tempo: 85 bpm
Tabbed By: lshoup631@gmail.com

Intro               
e|----------------|----------------|0-------0h2-----|----------------|
B|----------------|--------3-------|------------3---|--------3-------|
G|----------------|------------2---|----2-----------|------------2---|
D|----0---0h2p0---|----0-----------|----------------|----0-----------|
A|0h2-------------|0---------------|----------------|0---------------|
E|----------------|----------------|----------------|----------------|

e|----------------|----------------|--------0-------|----------------|
B|----------------|----------------|3-----------3---|----------------|
G|----------------|--------2-------|----2-----------|--------2-------|
D|----0---0h2p0---|----0-------0---|----------------|----0-------0---|
A|0h2-------------|0---------------|----------------|0---------------|
E|----------------|----------------|----------------|----------------|

e|----------------|
B|----------------|
G|----------------|
D|----0-----------|
A|0h2-----0h2p0---|
E|----------------|
Tap to rate this tab
 
# A B C D E F G H I J K L M N O P Q R S T U V W X Y Z