Song name
# A B C D E F G H I J K L M N O P Q R S T U V W X Y Z

John Murphy - In The House In A Heartbeat tab

-------------------------------------------------------------------------------
			The House In A Heartbeat - John Murphy
-------------------------------------------------------------------------------
Tabbed by: Quantum Solace
Email: jacob.hall@ymail.com

Tuning: D-A#-D-G-B-E


If you’re here looking at this tab, then you may already know that this is the theme
from the movie, 28 Weeks Later. This song is awesome! It may be a little confusing at
so please listen closely to the song before and while you learn this song. You don’t 
to it’s just a suggestion…anyways have fun performing this song in front of all your buddies.
remember that the tuning is very different for this tab, so make sure to tune your 
to the proper specifications or else it will sound like crap. Email me if you have any 
or comments or corrections to offer.


Introduction: Best to listen to song to figure out beat measures (4/4).

e|-----5-----5-----5-----5-----5-----5------5-----5--------5-----------5-----|
B|--3-----3-----3-----3-----3-----3-----3------3-----3-----------3-----------|
G|---------------------------------------------------------------------------|
D|---------------------------------------------------------------------------|
A#|------------------------(0)~~~~~~~~~~~~~~~~~~~~~~~~-----------------------|
D|---------------------------------------------------(0)-0-(0)-0-(0)-0-(0)-0-|

e|--------5-----------5---------5----------5-----------5------------5--------|
B|--3-----------3---------3-----------3-----------3-----------3--------------|
G|---------------------------------------------------------------------------|
D|---------------------------------------------------------------------------|
A#|----------------------(0)-0-(0)-0-(0)-0-(0)-0-(0)-0-(0)-0-(0)-0-(0)-0-----|
D|-(0)-0-(0)-0-(0)-0-(0)-0---------------------------------------------------|

e|-------5-----------5-----------5-------------------------------------------|
B|--3-----------3-----------3----------(3)-----------------------------------|
G|---------------------------------------------------------------------------|
D|---------------------------------------------------------------------------|
A#|--------------------------------------------------------------------------|
D|-(3)-3-(3)-3-(3)-3-(3)-3-(2)-2-(2)-2-(2)-----------------------------------|

Verse: Repeat for only God knows how many times (joke).

e|--------5-----------5----------5------------5---------------------------------|
B|--3-----------3-----------3-----------3--------------------------3-----5------|
G|----------------------------------------------------------10------------------|
D|--------------0~~~~~~~~~~~2~~~~~~~~~~~3~~~~~~~~~~~12-------------0------------|
A#|-3~~~~~~~~~~~-------------------------------------0~~~~~~~~~~~~(0)-0-(0)-----|
D|-(0)-0-(0)-0-(0)-0-(0)-0-(0)-0-(0)-0-(0)-0-(0)-0—(11)-11-(11)-11--------------|

e|-----------5-----------5-----------5-----------5-----------5-----------5---|
B|-----3-----------3-----------3-----------3-----------3-----------3---------|
G|---------------------------------------------------------------------------|
D|-----------------0~~~~~~~~~~~2~~~~~~~~~~~3~~~~~~~~~~~------------0~~~~~~~~-|
A#|-0--3~~~~~~~~~~~------------------------------------3~~~~~~~~~~~----------|
D|----(3)-3-(3)-3-(3)-3-(3)-3-(3)-3-(3)-3-(3)-3-(3)-3-(5)-5-(5)-5-(5)-5-(5)--|

e|-----------5----------5----------------------------------------------------|
B|-----3-----------3---------------------------------------------------------|
G|---------------------------------------------------------------------------|
D|~~~~~2~~~~~~~~~~~3---------------------------------------------------------|
A#|--------------------------------------------------------------------------|
D|--5-(5)-5-(5)-5-(5)-5-(5)-5------------------------------------------------|


Electric Guitar part: Heavy distortion. But start out with light distortion.

e|---------------------------------------------------------------------------|
B|---------------------------------------------------------------------------|
G|---------------------------------------------------------------------------|
D|----------------------------------------------0-0-0-0-2-2-2-2-3-3-3-3------|
A#|--3-3-3-3-4-4-4-4-6-6-6-6-7-7-7-7---0--0--0--0-0-0-0-0-0-0-0-0-0-0-0------|
D|---0-0-0-0-0-0-0-0-0-0-0-0-0-0-0-0--11-11-11-11----------------------------|

e|---------------------------------------------------------------------------|
B|---------------------------------------------------------------------------|
G|---------------------------------------------------------------------------|
D|---------------------------------------------------------------------------|
A#|-3-3-3-3-4-4-4-4-6-6-6-6-7-7-7-7---3-3-3-3-4-4-4-4-6-6-6-6-7-7-7-7--------|
D|--3-3-3-3-3-3-3-3-3-3-3-3-3-3-3-3---5-5-5-5-5-5-5-5-5-5-5-5-5-5-5-5--------|

Ending: Play twice and let notes ring.

e|--9------9------11----11-----9------9-------11-------11--------------------|
B|-----10------10----10----10-----10-----10--------10-------10---------------|
G|---------------------------------------------------------------------------|
D|---------------------------------------------------------------------------|
A#|--------------------------------------------------------------------------|
D|---------------------------------------------------------------------------|


e|---7------7-------7-------7-------9-------9------8------8------------------|
B|-------9------9-------9-------9-------9------9-------9------9--------------|
G|---------------------------------------------------------------------------|
D|---------------------------------------------------------------------------|
A#|--------------------------------------------------------------------------|
D|---------------------------------------------------------------------------|

| /  slide up
| \  slide down
| h  hammer-on
| p  pull-off
| ~  vibrato
| +  harmonic
| x  Mute note
===============================================================================
Tap to rate this tab
# A B C D E F G H I J K L M N O P Q R S T U V W X Y Z