Song name
# A B C D E F G H I J K L M N O P Q R S T U V W X Y Z

John Murphy - In The House In A Heartbeat tab

This is my self tabbed version of in the house in a heartbeat, it sounds pretty much 
(although i am playing it on an acoustic with 7 days experience)

email me errors @ hobbyhoff@hotmail.com

guitar 1 (acoustic or electric) (all the way through to the outro)

e|---5---5---5---5---5---5--|
B|-3---3---3---3---3---3----|
G|--------------------------|
D|--------------------------|
A|--------------------------|
E|--------------------------|

guitar 1 (outro)

e|-9---9---10---10---9---9---10---10---8---8---8---8---7---7---6---6-------------|
B|---7---7----8----8---7---7----8----8---6---6---6---6---5---5---4---------------|
G|-------------------------------------------------------------------------------|
D|-------------------------------------------------------------------------------|
A|-------------------------------------------------------------------------------|
E|-------------------------------------------------------------------------------|

outro is played when drums + guitars 2 and 3 stop

guitar 2 (electric)


e|-x-x-x--------------------|
B|-x-x-x--------------------|
G|-2-2-2--------------------|
D|-3-3-3--------------------|
A|-3-3-3--------------------|
E|-1-1-1--------------------|

that is the bit played on about 16 seconds, too many strums to note down lol, listen to 
song for strumming pattern


guitar 2 (electric)

e|---------------------------|
B|--1-1/2-2-2/4-4-4/5-5/6-6--|
G|---------------------------|
D|---------------------------|
A|---------------------------|
E|---------------------------|

repeated 28 times


guitar 3 (electric) repeat 12 times (starts after 16th repeat of guitar 2)


e|---------------------------|
B|---------------------------|
G|---------------------------|
D|---------------------------|
A|--1-1/2-2-2/4-4-4/5-5/6-6--|
E|---------------------------|


Guitar 1 plays all the way through until outro starts

Guitar 2 starts on 16th "beep" of Guitar 1

after playing the piece SOFTLY twice, it is played once more, with steady increase of hardness

then guitar 2 plays the main riff 28 times on the B string

on the 5th riff from guitar 2, drums start playing the beat.

on the 17th riff from guitar 2, guitar 3 plays the riff on the A-string, 12 times

after the (12th of guitar 3, 28th of guitar 2) riff is finished, the guitars and drums 
with a halt, and guitar 1 performs the outro twice.
Tap to rate this tab
# A B C D E F G H I J K L M N O P Q R S T U V W X Y Z