John Murphy - The Corridor tab

The Corridor, Kick ass Score - John Murphy.

Tabbed by SeawolfRN:
Email: psyco_raptor@dsl.pipex.com

This the intro to the piece as far as I can tell.
It's played when Hit Girl is hiding behind the podium, just before 'Bad Reputation' comes on.
It's a piece made specifically for the film. IMHO, it should have been extended 
for the entire scene, as
Bad reputation somewhat jars... But anyway.

Corrections appreciated (1st tab and all)



e|-----------------|------------------|
B|---------3-------|------------------|
G|-----4-----4---4-|-----4--------4---|
D|---4---4-----4---|---4---4----4---4-|
A|-2---------------|------------------|
E|-----------------|-3--------0-------|

Repeat 4 Times,

Then; 
e|-----------------|---------------|
B|---------3-------|-----3---3-2---|
G|-----4-----4---4-|---------------|
D|---4---4-----4---|---4-----------|
A|-2---------------|-2-------------|
E|-----------------|---------------|

As far as the Chords go, I'm a bit clueless, but I think these are played;

e|-2---|-----------------------------------------------------------|
B|-3---|-----------------------------------------------------------|
G|-4---|--0--------------------------------------------------------|
D|-4---|--2--------------------------------------------------------|
A|-2---|--2--------------------------------------------------------|
E|-2---|--0--------------------------------------------------------|

but other than that, I have no Idea.

Then there is a section of tremolo picking - To come.

Play to taste, essentially...

It's not much, but it's a start. (I couldn't find anything else on it)

Ta.

SeawolfRN.
Tap to rate this tab
 
# A B C D E F G H I J K L M N O P Q R S T U V W X Y Z