Song name
# A B C D E F G H I J K L M N O P Q R S T U V W X Y Z

John Murphy - The Surface Of The Sun tab

Surface of the Sun  composed by John Murphy / Tabbed by The Steve Experiment 
Capo 1st fret 


d|--------------------------------------------0---0--4----4----------------|
A|--------3---3------------------------3---3--5------0---------------------|
G|-0---0--0--0---4---4---2---2--4---4--0--0---4--4---2--2------------------|
D|-2--2---2-2----0--0--0-0--0---2--2---2-2----0-0----0-0-------------------|
A|-2-2----3------5-5-----0-0----2-2----3-----------------------------------|
D|-2-------------5-------4------2-------------5------4---------------------|

d|-5---5---5---7--9----9--9----7----5----5---10-----10--0----0--4----4-----|
A|-2-------5--5---5-------0---------2--------10---------5-------0----------|
G|-4--2-2--0-0----7--7----7--7------4--4--4--12---12----4--4----2--2-------|
D|-2-2------------5-5-----0-0----0--2-2------10-10------0-0-----0-0--------|
A|-2-------3------5-----------------2--------10----------------------------|
D|-2--------------5-------0---------2--------10---------5-------4----------|

d|------------------------------------------------------4-5-7-5-4-2-0------|
A|-2-0-2-3-2-0-2-0---2-0-2-3-2-0-2-3---5-3-5-7-5-3-5-7---0-0-0-0-0-0-0-3---|
G|--0-0-0-0-0-0-0-0---0-0-0-0-0-0-0-0---0-0-0-0-0-0-0----------------------|
D|-------------------------------------------------------------------------|
A|-------------------3-----------------------------------------------------|
D|-2-----------------------------------5----------------4------------------|

d|------------------------------------0-0-0-0-0-0-0-0---0-0-0-0-0-0-0-0----|
A|-2-2-2-2-2-2-2-2--3-3-3-3-3-3-3-3----------------------------------------|
G|--0-0-0-0-0-0-0----0-0-0-0-0-0-0-0---4-4-4-4-4-4-4-4---2-2-2-2-2-2-2-2---|
D|-------------------------------------------------------------------------|
A|------------------3------------------------------------------------------|
D|-2----------------------------------5-----------------4------------------|

d|------------------------------------0-0-0-0-0-0-0-0---4-4-4-4-4-4-4-4----|
A|-2-2-2-2-2-2-2-2--3-3-3-3-3-3-3-3----------------------------------------|
G|--0-0-0-0-0-0-0----0-0-0-0-0-0-0-0---4-4-4-4-4-4-4-4---2-2-2-2-2-2-2-2---|
D|-------------------------------------------------------------------------|
A|------------------3------------------------------------------------------|
D|-2----------------------------------5-----------------4------------------|



d|-5-5-5-5-5-5-5-5---5-5-5-5-7-7-7-7---9-9-9-9-9-9-9-9--9-9-9-9-7-7-7-7----|
A|-2-2-2-2-2-2-2-2---5-5-5-5-5-5-5-5---5-5-5-5-5-5-5-5--0-0-0-0-0-0-0-0----|
G|--4-4-4-4-4-4-4-4---0-0-0-0-0-0-0-0---7-7-7-7-7-7-7----7-7-7-7-7-7-7-7---|
D|--2-2-2-2-2-2-2-2---------------------5-5-5-5-5-5-5----0-0-0-0-0-0-0-0---|
A|-------------------3-----------------------------------------------------|
D|-2-----------------------------------5----------------0------------------|

d|-5-5-5-5-5-5-5-5---10--10-10-10-10-10-10--10----0-0-0-0-0-0-0-0-----|
A|-2-2-2-2-2-2-2-2---10--10--10--10--10--10--1010-----5-5-5-5-5-5-5-5-----|
G|--4-4-4-4-4-4-4-4----12--12--12--12--12--12--12-12----4-4-4-4-4-4-4-4----|
D|--2-2-2-2-2-2-2-2----10--10--10--10--10--10--10-10----0-0-0-0-0-0-0-0----|
A|-------------------------------------------------------------------------|
D|-2-----------------10--------------------------------5-------------------|

d|-4-4-4-4-4-4-4-4---4-5-4-2-0--2------------------------------------------|
A|-0-0-0-0-0-0-0-0--------------2------------------------------------------|
G|--2-2-2-2-2-2-2-2-------------4------------------------------------------|
D|--0-0-0-0-0-0-0-0-------------2------------------------------------------|
A|------------------------------2------------------------------------------|
D|-4----------------------------2------------------------------------------|

Tap to rate this tab
 
# A B C D E F G H I J K L M N O P Q R S T U V W X Y Z