Song name
# A B C D E F G H I J K L M N O P Q R S T U V W X Y Z

John Murphy - In The House In A Heartbeat tab

   In The House, In A Heartbeat (28 Days Later Theme) - John Murphy
 Tabbed by: \heavy_metal/
E-mail: BMJWroblewski@aol.com

Tuning: EADGBe

This is the beginning piano part first plays from
 0:00 - 0:13
e|-------17-----17----17---------------------------------------------------------------|
B|-15------15-----15----15-------------------------------------------------------------|
G|----14-----14-----14----14-----------------------------------------------------------|
D|-------------------------------------------------------------------------------------|
A|-------------------------------------------------------------------------------------|
E|-------------------------------------------------------------------------------------|

Then cuts into this from
0:13 - 0:30 then it stops and picks back up at 0:32 - 3:30

e|---17--17--17--17--17--17--17--17--17--17--17--17--17--17--17--17--17--17--|
B|-15--15--15--15--15--15--15--15--15--15--15--15--15--15--15--15--15--15--15|
G|---------------------------------------------------------------------------|
D|---------------------------------------------------------------------------|
A|---------------------------------------------------------------------------|
E|---------------------------------------------------------------------------|

 At 0:06 I'm not sure if it is bass or piano but for bass it is

G|-3-------------------------------------------------------------------------|
D|---------------------------------------------------------------------------|
A|---------------------------------------------------------------------------|
E|---------------------------------------------------------------------------|


 Bass at 0:13 - 0:30  play each note like 12 times (or something like that)

G|---------------------------------------------------------------------------|
D|-------------------------------------------------3-3-3-3-3-2-2-2-2-2-------|
A|-5-5-5-5-5-5-5-5-5-5-5-5---------------------------------------------------|
E|-------------------------6-6-6-6-6-6-6-6-6-6-6-6---------------------------|

Guitar at 0:32 - 3:30
e|------------------------------------------------------------------------------------|
B|------------------------------------------------------------------------------------|
G|------------------------------------------------------------------------------------|
D|-11~11~12~12~14~14~15~11~11~12~12~14~14~15~11~11~12~12~14~14~15~11~11~12~12~14~14~15|
A|------------------------------------------------------------------------------------|
E|------------------------------------------------------------------------------------|

Bass again at 0:32 - 3:30
G|-------------------------------------------------------------------------------------------------|
D|-------------------------------------------------3-3-3-3-3-3-3-3-3-3-3-3-5-5-5-5-5-5-5-5-5-5-5-5-|
A|-5-5-5-5-5-5-5-5-5-5-5-5-------------------------------------------------------------------------|
E|-------------------------6-6-6-6-6-6-6-6-6-6-6-6-------------------------------------------------|

G|-------------------------------------------------------------------------------------------------|
D|-------------------------------------------------3-3-3-3-3-3-3-3-3-3-3-3-5-5-5-5-5-5-5-5-5-5-5-5-|
A|-5-5-5-5-5-5-5-5-5-5-5-5-------------------------------------------------------------------------|
E|-------------------------6-6-6-6-6-6-6-6-6-6-6-6-------------------------------------------------|

G|-------------------------------------------------------------------------------------------------|
D|-------------------------------------------------3-3-3-3-3-3-3-3-3-3-3-3-2-2-2-2-2-2-2-2-2-2-2-2-|
A|-5-5-5-5-5-5-5-5-5-5-5-5-------------------------------------------------------------------------|
E|-------------------------6-6-6-6-6-6-6-6-6-6-6-6-------------------------------------------------|

G|-------------------------------------------------------------------------------------------------|
D|-------------------------------------------------3-3-3-3-3-3-3-3-3-3-3-3-5-5-5-5-5-5-5-5-5-5-5-5-|
A|-5-5-5-5-5-5-5-5-5-5-5-5-------------------------------------------------------------------------|
E|-------------------------6-6-6-6-6-6-6-6-6-6-6-6-------------------------------------------------|

 At 2:13 a distorted guitar comes in with synthesizer and repeats till 3:30
e|---------------------------------------------------------------------------|
B|---------------------------------------------------------------------------|
G|-6-6-6-6-7-7-7-7-9-9-9-9-10-10-10------------------------------------------|
D|-6-6-6-6-7-7-7-7-9-9-9-9-10-10-10------------------------------------------|
A|-4-4-4-4-5-5-5-5-7-7-7-7-8-8-8-8-------------------------------------------|
E|---------------------------------------------------------------------------|

When it gets to 3:31 the clean guitar plays
e|-9----9----11---11---19---9---11---11----7-7-7-7---------------------------|
B|---10---10----10---10-----10--10---10---10--9-9-9-9------------------------|
G|---------------------------------------------------------------------------|
D|---------------------------------------------------------------------------|
A|---------------------------------------------------------------------------|
E|---------------------------------------------------------------------------|

I will complete this tab tomorrow because I am so tired of hearing that song and have 
school too.

This is my first guitar/bass tab and I tabbed it because I love Dawn of the Dead and
there wasn't a tab for it (at least a correct tab) so I decided to tab it. After listening
to the song for 50 times I think this is pretty accurate. If you have any questions or 
any comments email me at BMJWroblewski@aol.com

Thanks for viewing and I will try to make more tabs

************************************

| /   slide up
| \   slide down
| h   hammer-on
| p   pull-off
| ~   vibrato
| +   harmonic
| x   Mute note
| b   Bend
| pb  Pre-bend
| br  Bend release
| pbr Pre-bend release
| brb Bend release bend

************************************
Tap to rate this tab
# A B C D E F G H I J K L M N O P Q R S T U V W X Y Z