Song name
# A B C D E F G H I J K L M N O P Q R S T U V W X Y Z

John Newton - Amazing Grace tab

Amazing Grace - acoustic guitar arrangement by Maxim


Standard Tuning (E A D G B e)

    Q=70
                 E            E7          A7   A7/Bb
   3/4
    Gtr I
    H    E S S   H    E S S   H    a Q    H    Q
||---------0---|-0----4-2-0-|-4----0-2--|-0------|
||o------0---0-|-0----------|-0---------|-2----2-|
||---------1---|-1------1---|-4------1--|-0----0-|
||-------2---2-|-2----2---2-|-0------2--|-2----2-|
||o------------|-2----------|-2------2--|-0----1-|
||-------------|-0----------|-0---------|--------|


  E            E                E7               B7sus4
                      |--3--|          |-3--|
  H    E S S   H    E T T S S   H    E S S +S     H.
|--------0---|-0----4-2-4-2-0-|-4----2-2-4-(4)S|==7-----|
|-0----0---0-|-0--------------|-0--------------|-10-----|
|-1----------|-4----4---------|-4----4---------|--9-----|
|-2------2---|-6--------------|-0--------------|--7-----|
|-2----2---2-|-7--------------|-2--------------|--9-----|
|------------|-0--------------|-0--------------|--------|


                  E                E7          A7   A7/Bb
                         |--3--|
   +H     E S S   H    E T T S S   H    a Q    H    Q
|--(7)----4-7-4-|-7----4-2-4-2-0-|-4----0-2--|-0-------|
|-(10)----5-9-5-|-5--------------|-0---------|-2----2--|
|--(9)----------|-4----4---------|-4------1--|-0----0--|
|--(7)----------|-6--------------|-0------2--|-2----2--|
|--(9)----------|----------------|-2------2--|-0----1--|
|---------------|-0--------------|-----------|---------|


  E            E7               E    B7   E
                      |--3--|
  H    E S S   H    E T T S S   H    Q    H.
|--------0---|-0----4-2-4-2-0-|-4----2--|-0------||
|-0----0-2-0-|-0--------------|-0----0--|-0-----o||
|-1----1---1-|-1----4---------|-4----2--|-4------||
|-2----------|-0--------------|-2----1--|-6------||
|-2----------|-2--------------|-2----2--|-7-----o||
|------------|----------------|---------|-0------||

Duration Legend
---------------
W - whole; H - half; Q - quarter; E - 8th; S - 16th; T - 32nd; X - 64th; a - acciaccatura
+ - note tied to previous; . - note dotted; .. - note double dotted
Uncapitalized letters represent notes that are staccato (1/2 duration)
Irregular groupings are notated above the duration line
Duration letters will always appear directly above the note/fret number it represents the
duration for.  Duration letters with no fret number below them represent rests.  Multi-
bar rests are notated in the form Wxn, where n is the number of bars to rest for.  Low
melody durations appear below the staff

Tablature Legend
----------------
 h   - hammer-on
 p   - pull-off
 b   - bend
 pb  - pre-bend
 r   - bend release (if no number after the r, then release immediately)
 /\  - slide into or out of (from/to "nowhere")
 s   - legato slide
 S   - shift slide
  - natural harmonic
[n]  - artificial harmonic
n(n) - tapped harmonic
 ~   - vibrato
 tr  - trill
 T   - tap
 TP  - trem. picking
 PM  - palm muting
\n/  - tremolo bar dip; n = amount to dip
 \n  - tremolo bar down
 n/  - tremolo bar up
/n\  - tremolo bar inverted dip
 =   - hold bend; also acts as connecting device for hammers/pulls
 <>  - volume swell (louder/softer)
 x   - on rhythm slash represents muted slash
 o   - on rhythm slash represents single note slash

Misc Legend
-----------
 |  - bar
||  - double bar
||o - repeat start
o|| - repeat end
*|  - double bar (ending)
 :  - bar (freetime)
 $  - Segno
 &  - Coda
Tempo markers -  = BPM(8/16=s8/s16), where s8 = swing 8ths, s16 = swing 16ths
Tap to rate this tab
# A B C D E F G H I J K L M N O P Q R S T U V W X Y Z