Song name
# A B C D E F G H I J K L M N O P Q R S T U V W X Y Z

John Newton - Amazing Grace tab

E|--------------------------------------------------------------------------|
B|-------------------------------------------------------------3--3/5---3---|
G|----0--2/4-0-2/4--2---0-----------------0----2/4--0--2/4--2---------------|
D|-0-------------------------2---0----0-------------------------------------|
A|--------------------------------------------------------------------------|
E|--------------------------------------------------------------------------|

E|--------------------------------------------------------------------------|
B|-----3------3-------------------------------------------------------------|
G|-4------4-------4----0-----------0--0-------------------------------------|
D|-------------------------0---2----------2---0-----------------------------|
A|--------------------------------------------------------------------------|
E|--------------------------------------------------------------------------|

E|--------------------------------------------------------------------------|
B|--------------------------------------------------------------------------|
G|----0--2/4-0-2/4--2---0---------------------------------------------------|
D|-0------------------------------------------------------------------------|
A|--------------------------------------------------------------------------|
E|--------------------------------------------------------------------------|
Tap to rate this tab
# A B C D E F G H I J K L M N O P Q R S T U V W X Y Z