Song name
# A B C D E F G H I J K L M N O P Q R S T U V W X Y Z

John Newton - Amazing Grace tab

Amazing Grace - John Newton (1725-1807)

3/4 - 60+ beats per min

Tabbed by Sharad 
Date - 4.4.03 (minor amendments 9 Apr 03)

tuning DADGBE


                         |------------------------|
                         |----------------------3-|
                         |----------------2-------|
                         |------------------------|
                         |------------------------|
                         |------------------------|
                                          1     2
 

 cII-----------------/     cII------------/
|----------------2---0---|2---------------0-------|
|3---------------------3-|3---------------1-------|
|2-----------------------|2---------------2-------|
|4-----------------------|0---------------0-------|
|0-----------------------|------------------------|
|0-----------------------|------------------------|
 2               1     2  1               1
 1                        2               2
 3                        1


|------------------------|------------------------|
|3---------------0-------|----------------------3-|
|4---------------0-------|2---------------2-------|
|0-----------------------|4---------------4-------|
|------------------------|------------------------|
|5-----------------------|------------------------|
 1
 2
 3


|----------------2---0---|2---------------0-----5-|
|3---------------3-----3-|3---------------3-------|
|2---------------2-------|2---------------2-------|
|4-----------------------|0-----------------------|
|0-----------------------|------------------------|
|0-----------------------|------------------------|
                                          2
                                          1     4


 c2--------------/                         cI-----/
|5-----------------------|----------------2---5---|
|2---------------3-------|2---------------2-------|
|2-----------------------|0---------------0-------|
|2---------------4-------|------------------------|
|0-----------------------|----------------0-------|
|------------------------|------------------------|
                          1


|5---------------2---0---|2---------------0-------|
|3---------------3-----3-|1---------------1-------|
|2---------------2-------|2---------------2-------|
|4---------------0-------|0---------------0-------|
|0-----------------------|------------------------|
|0-----------------------|------------------------|


|------------------------|------------------------|
|3---------------0-------|----------------------3-|
|4---------------0-------|2---------------2-------|
|0-----------------------|4---------------4-------|
|------------------------|------------------------|
|5-----------------------|0-----------------------|
 1
 2
 3


                          C2--------------\
|----------------2---0---|2---------------0-------|
|3---------------3-----3-|2---------------2-------|
|2---------------2-------|2---------------0-------|
|4-----------------------|------------------------|
|0-----------------------|0-----------------------|
|0-----------------------|------------------------|
                          1               1


                                          cVII----/
|------------------------|------------------------|
|3-----------------------|------------------------|
|4-----------------------|2-------------------7---|
|5-----------------------|4---------------7-------|
|------------------------|------------------------|
|0-----------------------|------------------------|
 1                                            1
 2                                        1
 3


|------------------------|------------------------|
|----------------7---5---|7---------------5-------|
|7---------------7-----7-|6---------------5-------|
|7-----------------------|------------------------|
|9-----------------------|------------------------|
|0-----------------------|------------------------|
 1               4   1    4               1
 1               3        2               1
 3


|------------------------|------------------------|
|3-----------------------|------------------------|
|4---------------4-------|2-----------------------|
|----------------5-------|4-------------------7---|
|------------------------|----------------9-------|
|5-----------------------|------------------------|
                 2
                 4


|------------------------|----------------------5-|
|----------------7---5---|7---------------5-------|
|7---------------7-----7-|7---------------7-------|
|7---------------7-------|0-----------------------|
|9-----------------------|------------------------|
|0-----------------------|0-----------------------|
                 4
                 3
                 2


|5-----------------------|----------------2-----5-|
|2---------------3-------|----------------2-------|
|2-----------------------|2---------------0-------|
|2---------------4-------|0-----------------------|
|0-----------------------|----------------0-------|
|------------------------|------------------------|


|5---------------2---0---|2---------------0-------|
|3---------------3-----3-|1---------------1-------|
|2---------------2-------|2---------------2-------|
|4-----------------------|0---------------0-------|
|0-----------------------|------------------------|
|0-----------------------|------------------------|


|------------------------|------------------------|
|3---------------0-------|----------------------3-|
|4---------------0-------|2---------------2-------|
|0-----------------------|4---------------4-------|
|------------------------|------------------------|
|5-----------------------|0-----------------------|


                          cII............./
|----------------2---0---|2---------------0-------|
|3---------------3-----3-|2---------------2-------|
|2---------------2-------|2---------------0-------|
|4-----------------------|------------------------|
|0-----------------------|0-----------------------|
|0-----------------------|------------------------|
                                          1


|------------------------|-----------------------||
|3-----------------------|3----------------------||
|4---------------4-------|2----------------------||
|5---------------2-------|4----------------------||
|------------------------|0----------------------||
|0-----------------------|0----------------------||
Tap to rate this tab
# A B C D E F G H I J K L M N O P Q R S T U V W X Y Z