Song name
# A B C D E F G H I J K L M N O P Q R S T U V W X Y Z

John Nolan - I Dont Believe You chords

Highlighted       Show chord diagrams
Mike G
Height 2009
Acoustic
myspace.com/johnnolanmusic


Verse

  C          Em         Fmaj     G        Am    Am   Fmaj    G
--0---0-------0---0------0-------3---------0-----0-----0-----3--------------|
--1-h-0-------0-h-1------1-------0---------1-----1-----1-----0--------------|
--0---0-------0---0------2-------0---------2-----2-----2-----0--------------|
--2---2-------2---2------3-------0---------2-----2-----3-----0--------------|
--3---3-------2---2------3-------2---------------------3-----2--------------|
---------------------------------3---------------------------3--------------|


Chorus

  Em     Fmaj    Am     G
---0------0-------0-----3---3---------------------------------------------|
---0------1-------1-----0-h-1---------------------------------------------|
---0------2-------2-----0---0---------------------------------------------|
---2------3-------2-----0---0---------------------------------------------|
---2------3-------------2---2---------------------------------------------|
------------------------3---3---------------------------------------------|
Tap to rate this tab
 
# A B C D E F G H I J K L M N O P Q R S T U V W X Y Z