Song name
# A B C D E F G H I J K L M N O P Q R S T U V W X Y Z

John Nolan - Not To Let Go tab

Mike G
Height 2009
myspace.com/johnnolanmusic


Intro/Verse

try to continue to strum the main chords    end verse on

  Em          G                                 D
 --0----------3--------------------          ---2---|
 --0---0-0----0--0-0---------------          ---3---|
 --0----2-2-0-0---2-2-0------------          ---2---|
 --2----------0--------------------          -------|
 --2----------2--------------------          -------|
 -------------3--------------------          -------|


Chorus

 G   D   Am  Em  D
-3---2---0---0---2--------------------------------------------------------|
-0---3---1---0---3--------------------------------------------------------|
-0---2---2---0---2--------------------------------------------------------|
-0---0---2---2---0--------------------------------------------------------|
-2---0-------2---0--------------------------------------------------------|
-3------------------------------------------------------------------------|
Tap to rate this tab
 
# A B C D E F G H I J K L M N O P Q R S T U V W X Y Z