John Norum - Face The Truth tab

                  "Face The Truth" by John Norum
                        "Face The Truth album"

"Guitar Riffs (Solos my version is Norum style in studio and live. not disponible, is private me)"

Tabulated by: Renan Vickysider (lucacarrico@hotmail.com) 
brazilian guitar Europe cover

Notation:

p - pull off               
h - hammering on
a.h - arificial harmonic
s- slide

    Intro 

     E  E  E  E  E  E  E     E  E  E  E  E  E  E  E  S    E  E  E  E  E  E  E   
E||-----------------------|----------------------------|--------------------|
B||-----------------------|--3--3--3-------------------|--------------------|
G||--2--1--2--4--2--1--2--|--2--2--2--2--2--2----------|--2--1--2--4--2--1--|
D||--2--2--2--4--2--2--2--|-----------2--2--2----------|--2--2--2--4--2--2--|
A||-----------------------|--------------------2-------|--------------------|
E||-----------------------|-----------------------5--2-|--------------------|


  E  E  E    E  E  E  E    S    E  E  E  E  E  E  E   
-----------------------------|-----------------------|
--3--3--3--------------------|-----------------------|
--2--2--2--------------------|--2--1--2--4--2--1--2--|
-----------------------------|--2--2--2--4--2--2--2--|
-----------<>2--4--5--4--<>2-|-----------------------|
-----------------------------|-----------------------|
           a.h           a.h

  E  E  E  E  E  E  E  E  S    E  E  E  E  E  E  E     E  E  E  Q     
----------------------------|-----------------------|----------------|
--3--3--3-------------------|-----------------------|--3--3--3-------|
--2--2--2--2--2--2----------|--2--1--2--4--2--1--2--|--2--2--2--4----|
-----------2--2--2----------|--2--2--2--4--2--2--2--|-----------4----|
--------------------2-------|-----------------------|-----------2----|
-----------------------5--2-|-----------------------|----------------|

Verse

    S   S   S   S S S S S S S      S   S   S   S S S S S S S    S S S S S Q     
------------------------------|------------------------------|--------------|
------------------------------|------------------------------|--------------|
------------------------------|------------------------------|--------------|
--<>4-<>2-----<>2-------------|--<>4-<>2-----<>2-----------2-|--2-2-2-2-2---|
----------<>4-----4-4-2-2-----|----------<>4-----4-4-2-2-4-0-|--0-0-0-0-0-2-|
--------------------------5-2-|------------------------------|------------0-|
  a.h a.h a.h a.h                a.h a.h a.h a.h

  E  E  E  E  E  E  E       S   S   S   S S S S S S S  
-----------------------|------------------------------|
-----------------------|------------------------------|
--2--1--2--4--2--1--2--|------------------------------|
--2--2--2--4--2--2--2--|--<>4-<>2-----<>2-------------|
-----------------------|----------<>4-----4-4-2-2-----|
-----------------------|--------------------------5-2-|
                          a.h a.h a.h a.h

                                                      Verse 2

    S   S   S   S S S S S S S    S S S S S Q    Q       E  S S S S S S  S  
------------------------------|----------------------|--------------------|
------------------------------|----------------------|--------------------|
------------------------------|----------------------|--7--7-7-7-7-7-7p6--|
--<>4-<>2-----<>2-----------2-|--2-2-2-2-2-4---------|--7--7-7-7-7-7-7p6--|
----------<>4-----4-4-2-2-4-0-|--0-0-0-0-0-4----2----|--5--5-5-5-5-5-5p4--|
------------------------------|------------2----0----|--------------------|
  a.h a.h a.h a.h

  E  S S S S S S E     S   S  S S S S S S S S S S S S    E  S S S S S S  S  
--------------------|---------------------------------|--------------------|
--------------------|---------------------------------|--------------------|
--4--4-4-4-4-4-4----|-------------------4-4-6-6-7-6-7-|--7--7-7-7-7-7-7p6--|
--4--4-4-4-4-4-4-4--|-----------4-4-7-7---------------|--7--7-7-7-7-7-7p6--|
--2--2-2-2-2-2-2-4--|-------------------2-2-4-4-5-4-5-|--5--5-5-5-5-5-5p4--|
-----------------2--|--2s12s2---2-2-5-5---------------|--------------------|
                    
  E  S S S S S S E  E       S   S   S S S S S S S S S S S  
-----------------------|----------------------------------|
-----------------------|----------------------------------|
--4--4-4-4-4-4-4-------|----------------------------------|
--4--4-4-4-4-4-4-2-----|----------------------------------|
--2--2-2-2-2-2-2-0--2--|--<>4-----<>4-7-7-4---------------|
--------------------0--|------<>7-----------7-4-4-2-2-4-4-|
                          a.h a.h a.h

        Fill                                  Chorus

    S   S T  T  T T  T  T T  T  T  T  T T T    E  E  E  E  E  E  E   
--------------------------------------------|-----------------------|
--------------------------------------------|-----------------------|
----------------------4h5h7p5p4-------------|--2--1--2--4--2--1--2--|
----------------4h5h7-----------5-4---------|--2--2--2--4--2--2--2--|
--<>4-----4h5h7-----------------------------|-----------------------|
------<>7-----------------------------------|-----------------------|
  a.h a.h

  E  E  E  E  E  E  E  E  S    E  E  E  E  E  E  E   
----------------------------|-----------------------|
--3--3--3-------------------|-----------------------|
--2--2--2--2--2--2----------|--2--1--2--4--2--1--2--|
-----------2--2--2----------|--2--2--2--4--2--2--2--|
--------------------2-------|-----------------------|
-----------------------5--2-|-----------------------|


  E  E  E    E  E  E  E    S    E  E  E  E  E  E  E   
-----------------------------|-----------------------|
--3--3--3--------------------|-----------------------|
--2--2--2--------------------|--2--1--2--4--2--1--2--|
-----------------------------|--2--2--2--4--2--2--2--|
-----------<>2--4--5--4--<>2-|-----------------------|
-----------------------------|-----------------------|
           a.h           a.h

  E  E  E  E  E  E  E  E  S    E  E  E  E  E  E  E     E  E  E  Q      
----------------------------|-----------------------|----------------||
--3--3--3-------------------|-----------------------|--3--3--3-------||
--2--2--2--2--2--2----------|--2--1--2--4--2--1--2--|--2--2--2--4----||
-----------2--2--2----------|--2--2--2--4--2--2--2--|-----------4----||
--------------------2-------|-----------------------|-----------2----||
-----------------------5--2-|-----------------------|----------------||

Other: Bm  D Em F#m
Riff solo: D  A  F#m  Em
           F#m   A  Bm
Tap to rate this tab
 
# A B C D E F G H I J K L M N O P Q R S T U V W X Y Z