Song name
# A B C D E F G H I J K L M N O P Q R S T U V W X Y Z

John Olav Nilsen And Gjengen - Valiumsvalsen chords

Highlighted       Show chord diagrams
-------------------------------------------------------------------------------

John Olav Nilsen & Gjengen - Valiumsvalsen

-------------------------------------------------------------------------------

Tabbed by: Espen Myklebust

E-mail: snurresprettert@yahoo.no


Intro & verse: B D#m E E6 E

Bridge: B C#m D#m E x2

Modulates up noe whole step about 2 mins into the song

   B-D#m-E--E6-C#m
e|-7--6--7--9--4--|
B|-7--7--9--9--5--|
G|-8--8--9--9--6--|
D|-9--8--9--9--6--|
A|-9--6--7--7--4--|
E|-7--x--x--x--x--|

http://www.myspace.com/johnolavnilsen
http://www.youtube.com/watch?v=DZLkyaDhrRk&feature=related
Tap to rate this tab
# A B C D E F G H I J K L M N O P Q R S T U V W X Y Z