Song name
# A B C D E F G H I J K L M N O P Q R S T U V W X Y Z

John Olav Nilsen And Gjengen - Hull I Himmelen tab

This is a song by Norwegian band John Olav Nilsen & Gjengen


I learned this by ear so there can be some mistakes so listen to the song for rhythm and such.

Intro 1 x4 (0:00-0:43)

E:---------------------------------------------------|
B:---------------------------------------------------|
G:---------------------------------------------------|
D:-------0-----0-----0-----0-----0-----0-----0-----0-|
A:-----9-----7-----5-----5-----5-----7-----9-----9---|
E:-5~7-----5-----3-----3-----3-----5-----7-----7-----|

Intro 2a x4 (0:43-1:10)

E:-----------------------------|
B:-----------------------------|
G:---4-4-4-7-4---4-4-4-7-44444-|
D:-7-----------7---------------|
A:-----------------------------|
E:-----------------------------|

Intro 2b / Verse 1 x4 (0:43-1:21)

E:------------|
B:------------|
G:---11-7<<<<-|
D:-9----------|
A:------------|
E:------------|

Verse 1 x4 (1:26-1:37)

E:--------|
B:--------|
G:-44444--|
D:--------|
A:--------|
E:--------|

Chorus 1 x4 (1:37-1:51)

E:-7--5--3--3--5--7-|
B:-7--5--3--3--5--7-|
G:-7--6--4--4--6--7-|
D:-9--7--5--5--7--9-|
A:-9--7--5--5--7--9-|
E:-7--5--3--3--5--7-|

Verse 2 x12 (1:53-2:32)

E:-----------------------------|
B:-----------------------------|
G:---4-4-4-7-4---4-4-4-7-44444-|
D:-7-----------7---------------|
A:-----------------------------|
E:-----------------------------|

Chorus 2 x4 (2:33-2:47)

E:-7--5--3--3--5--7-|
B:-7--5--3--3--5--7-|
G:-7--6--4--4--6--7-|
D:-9--7--5--5--7--9-|
A:-9--7--5--5--7--9-|
E:-7--5--3--3--5--7-|

Bridge A x2 (2:49-3:02)

E:-7--5--3--3--5--7-|
B:-7--5--3--3--5--7-|
G:-7--6--4--4--6--7-|
D:-9--7--5--5--7--9-|     This is just the chord progression, figure out the
A:-9--7--5--5--7--9-|     rhythm yourself.
E:-7--5--3--3--5--7-|

Bridge B1 x4 (2:49-2:58)

E:-----------------------------|
B:-----------------------------|
G:---4-4-4-7-4---4-4-4-7-44444-|
D:-7-----------7---------------|
A:-----------------------------|
E:-----------------------------|

Bridge B2 x1 (2:59-3:02)

E:---------------------------|
B:---------------------------|
G:---4-7-9-11-11111111111111-|  Its 11 not 1.
D:-7-------------------------|
A:---------------------------|
E:---------------------------|

Last Verse x4 (3:02-3:29)

E:-----------|
B:-----------|
G:-----------|
D:-----5-5---|
A:-9-7-----9-|
E:-7-5-3-3-7-|

Last Chorus x4 (3:29-3:45)

E:-7--5--3--3--5--7-|
B:-7--5--3--3--5--7-|
G:-7--6--4--4--6--7-|
D:-9--7--5--5--7--9-|
A:-9--7--5--5--7--9-|
E:-7--5--3--3--5--7-|

For any info email me : Forcerat@hotmail.com

http://www.myspace.com/johnolavnilsen
Tap to rate this tab
# A B C D E F G H I J K L M N O P Q R S T U V W X Y Z