John Olav Nilsen And Gjengen - Diamanter Og Kirsebr tab

This is my first tab, so im sorry if anything is wrong.

This is the tab for the 1st guitar.

Intro:

-----------------------|  repeat 2 times.
---8--8-8-8-------3-5--|
-5---------4--4-5----5-|
-----------------------|
-----------------------|
-----------------------|

Verse:

---------------------- ---------------------------|
---8--8-8-8-------3-5-  ---8--8-8-8-------3-5-----|
-5---------4--4-5----5 -5---------4--4-5----5-----|
--------------------------------------------------|

Pre Chours:

---------------------------------    -----------------------|
----------8-8---------------3-5--    ---8--8-8-8-------3-5--|
-5-5--7-7-----4-4--4-4--5-5-----5    -5---------4--4-5----5-|
---------------------------------    -----------------------|
---------------------------------    -----------------------|
---------------------------------    -----------------------|

Chours:

---------------------------------|   repeat 4 times.
---------------------------------|
--7--9--5-5----9-9--7------------|
---------------------------------|
---------------------------------|
---------------------------------|

Now you can play the rest of the song:-)
Tap to rate this tab
 
# A B C D E F G H I J K L M N O P Q R S T U V W X Y Z