Guitaretab - guitar tabs
Song name
# A B C D E F G H I J K L M N O P Q R S T U V W X Y Z

John Paul Jones - Grind tab

                      Grind by Sir John Paul Jones
                       Tabbed by Luke Smith

  This is a cool song, and so is the rest of ZOOMA. This is by far the
best solo album released by any member of LED ZEPPELIN.
  I haven't seen anyone post any JPJ songs yet, so I'll be the first. The
 tab I have isn't exactly great or anything but it's start. And it's not
in the same key, but it's close enough. Pardone my mistakes.
[ Tab from: http://www.guitaretab.com/j/john-paul-jones/126076.html ]
E-----------------------------------|
B-----------------------------------|
G-----------------------------------|
D-2h4-4-4-4-----2h4-4-4-8-7-6-------|
A-2---2-2-2--2--2---2-2-6-5-4-------|
E-----------------------------------|


Here's a little something extra, this is the intro to Snake Eyes..not
complete or correct, but it sounds close to me.

E------------------------------|
B------------------------------|
G------------------------------|
D------------------------2-----|
A------------------------------|
E-0--0--3bp0---0-0-0-0-5b------|
Related for Grind tab
Advertisement will be closed in 10 seconds