Song name
# A B C D E F G H I J K L M N O P Q R S T U V W X Y Z

John Petrucci - Glasgow Kiss tab

Artist: John Petrucci
Song: Glasgow Kiss
E||---------------------------------------|
B||-----------7--------10--7--9--7--------|
G||--------9-----9------------------9-----|
D||-----9-----------9------------------9--|
A||--7------------------------------------|
E||---------------------------------------|

--------------------------------------|
-----------7--------------------------|
--------9-----9-----7--6-----------6--|
-----9-----------9--------9--7--9-----|
--7-----------------------------------|
--------------------------------------|

---------------------------------------|
-----------7--------10--7--9--7--------|
--------------9------------------9-----|
--9-----9--------9------------------9--|
-----7---------------------------------|
---------------------------------------|

--10--7--9--10p-9-7---------------------------|
---------------------10--7--10-----10-----10--|
--------------------------------9------7------|
----------------------------------------------|
----------------------------------------------|
----------------------------------------------|

---------------------------------------|
-----------7--------10--7--9--7--------|
--------9-----9------------------9-----|
-----9-----------9------------------9--|
--7------------------------------------|
---------------------------------------|

--------------------------------------|
-----------7--------------------------|
--------9-----9-----7--6-----------6--|
-----9-----------9--------9--7--9-----|
--7-----------------------------------|
--------------------------------------|

---------------------------------------|
-----------7--------10--7--9--7--------|
--------------9------------------9-----|
--9-----9--------9------------------9--|
-----7---------------------------------|
---------------------------------------|

---------------------7--10--7--12--9------|
------------------8-------------------10--|
-----------4S--7--------------------------|
--------7---------------------------------|
-----5------------------------------------|
--3---------------------------------------|

|---------------14----------17--14--16--14----------|
|-----------17------17----------------------17------|
|*------16--------------16----------------------16--|
|*--14----------------------------------------------|
|---------------------------------------------------|
|---------------------------------------------------|

--------------14----------------------------------|
----------17------17------15--14--------------14--|
------16--------------16----------16--14--16------|
--14----------------------------------------------|
--------------------------------------------------|
--------------------------------------------------|

--------------14----------17--14--16--14----------|
------------------17----------------------17------|
--16------16----------16----------------------16--|
------14------------------------------------------|
--------------------------------------------------|
--------------------------------------------------|

--22--19--21--22p-21-19-------------------------------||
-------------------------22--19--22------22------22---||
-------------------------------------21------19------*||
-----------------------------------------------------*||
------------------------------------------------------||
------------------------------------------------------||

--------------14----------17--14--16--14----------|
------------------17----------------------17------|
--16------16----------16----------------------16--|
------14------------------------------------------|
--------------------------------------------------|
--------------------------------------------------|



---------------------------19--22--19--24--21------|
-----------------------20----------------------22--|
--------------16S--19------------------------------|
----------19---------------------------------------|
------17-------------------------------------------|
--15-----------------------------------------------|

------------------------------------|
------------------------------------|
--13----14----16----14b~------------|
------------------------------------|
------------------------------------|
------------------------------------|

---------------------------------------|
---------------------------------------|
--L--------13--14--16----14----13S--9--|
---------------------------------------|
---------------------------------------|
---------------------------------------|

--------------------------------|
--------------------------------|
--11------L----7--7~------------|
--------------------------------|
--------------------------------|
--------------------------------|

------------------------------|
------------------------------|
--L------------L------L-------|
------------------------------|
------------------------------|
------------------------------|

------------------------------------|
------------------------------------|
--11----13----14----13b~------------|
------------------------------------|
------------------------------------|
------------------------------------|

----------------------------------------|
----------------------------------------|
---L--------11--13--14----13----11S--7--|
----------------------------------------|
----------------------------------------|
----------------------------------------|

--------------------|-------------------|
--------------------|-------------------|
--9~----------------|--L----------------|
--------------------|-------------------|
--------------------|-------------------|
--------------------|-------------------|

------------------------------------|
------------------------------------|
--13----14----16----14b~------------|
------------------------------------|
------------------------------------|
------------------------------------|

-----------------------------------------|
------------12--14--15~----14------------|
--L------L-----------------------16--14--|
-----------------------------------------|
-----------------------------------------|
-----------------------------------------|

----------------------------------|
----------------------------------|
--16------L--11----11~------------|
----------------------------------|
----------------------------------|
----------------------------------|

------------------------------|
------------------------------|
--L------------L--------L-----|
------------------------------|
------------------------------|
------------------------------|

-------------------------------------|
--------------14---------------------|
--14----16----------16br~------------|
-------------------------------------|
-------------------------------------|
-------------------------------------|

----------------------------------------|
--------------------14------------------|
--L------L--14--16--------16----14------|
----------------------------------------|
----------------------------------------|
----------------------------------------|
--/16------L--12----12~-----------------|
----------------------------------------|
----------------------------------------|
----------------------------------------|

--------------------------------|
--------------------------------|
--L------------L------L----/11--|
--------------------------------|
--------------------------------|
--------------------------------|

-----------------------------------|
--12----14----15----14b------------|
-----------------------------------|
-----------------------------------|
-----------------------------------|
-----------------------------------|

-----------------------------------14------|
--L------L---------15------17--------------|
--------------/14------14------14------14--|
-------------------------------------------|
-------------------------------------------|
-------------------------------------------|

-----------------------------------|
--17b~------L-----L---L------------|
-----------------------------------|
-----------------------------------|
-----------------------------------|
-----------------------------------|

-----------------------------------16------|
--L------L---------17------19--------------|
--------------/16------16------16------16--|
-------------------------------------------|
-------------------------------------------|
-------------------------------------------|

---------------------------------|
--21br------L----L--L------------|
---------------------------------|
---------------------------------|
---------------------------------|
---------------------------------|

-----------------16--17----16------------|
--L----L--L--19------------------19--17--|
-----------------------------------------|
-----------------------------------------|
-----------------------------------------|
-----------------------------------------|
.
------------19----19~------------|--L----------------|
--19-----------------------------|-------------------|
---------------------------------|-------------------|
---------------------------------|-------------------|
---------------------------------|-------------------|
---------------------------------|-------------------|

--L------------L------------|
---------------5------------|
---------------4------------|
--2------------2------------|
--2------------L------------|
--0------------L------------|

--0----------------------------|
--L----------------------------|
--L------------2------2--2--2--|
--L------------2------2--2--2--|
--L------------0------0--0--0--|
--L----------------------------|

---------------0------------|
---------------5------------|
---------------4------------|
--2------------2------------|
--2------------L------------|
--0------------L------------|

-------------------------------|
-------------------------------|
---------------7------7--7--7--|
--5------------7------7--7--7--|
--5------------5------5--5--5--|
--3----------------------------|





---------------0------------|
---------------5------------|
---------------4------------|
--2------------2------------|
--2------------L------------|
--0------------L------------|

--L----------------------------|
--L----------------------------|
--L------------2------2--2--2--|
--L------------2------2--2--2--|
--L------------0------0--0--0--|
--L----------------------------|

---------------0------------|
---------------5------------|
---------------4------------|
--2------------2------------|
--2------------L------------|
--0------------L------------|

----------------------------|
----------------------------|
---------------7------------|
--5------------7------------|
--5------------5------------|
--3-------------------------|

--/16----17----19----17b~------------|
-------------------------------------|
-------------------------------------|
-------------------------------------|
-------------------------------------|
-------------------------------------|

--L--------16--17--19----17----16------|
-----------------------------------17--|
---------------------------------------|
---------------------------------------|
---------------------------------------|
---------------------------------------|

------------------------------------------|
--/19------19s----15-15-15--15~----L------|
------------------------------------------|
------------------------------------------|
------------------------------------------|
------------------------------------------|

-----------------------------|
--L------------L--------L----|
-----------------------------|
-----------------------------|
-----------------------------|
-----------------------------|

--14----16----17----16b~------------|
------------------------------------|
------------------------------------|
------------------------------------|
------------------------------------|
------------------------------------|

---L--------14--16--17--0--16--0-----------|
----------------------------------19S--15--|
-------------------------------------------|
-------------------------------------------|
-------------------------------------------|
-------------------------------------------|

-----------------------------19------17--|
--17~----------------17------------------|
-----------------16------16------16------|
-----------------------------------------|
-----------------------------------------|
-----------------------------------------|

--L--16--------------16--------------19--16------|
---------19--17--19------17------17----------17--|
-----------------------------16------------------|
-------------------------------------------------|
-------------------------------------------------|
-------------------------------------------------|

--/16----17----19----17b~------------|
-------------------------------------|
-------------------------------------|
-------------------------------------|
-------------------------------------|
-------------------------------------|

--L--------19--21--22----21----19s--17----|
------------------------------------------|
------------------------------------------|
------------------------------------------|
--19------L--14----14~--------------------|
------------------------------------------|
------------------------------------------|
------------------------------------------|
------------------------------------------|
------------------------------------------|

--L------------L---------7s----|
-------------------------------|
-------------------------------|
-------------------------------|
-------------------------------|
-------------------------------|

--17----19----21----19b------------|
-----------------------------------|
-----------------------------------|
-----------------------------------|
-----------------------------------|
-----------------------------------|

--L--------17--19--21----19----17----|
-------------------------------------|
-------------------------------------|
-------------------------------------|
-------------------------------------|
-------------------------------------|

--19--------19g21----19------------|
-----------------------------------|
-----------------------------------|
-----------------------------------|
-----------------------------------|
-----------------------------------|

---------------14------12--L----------------------|
-------12---------------------15--14--12--14--15--|
--/11------11------11-----------------------------|
--------------------------------------------------|
--------------------------------------------------|
--------------------------------------------------|

--------------14p--10------12p--9-------17p--12------|
--12------12-----------12----------10------------14--|
------11---------------------------------------------|
-----------------------------------------------------|
-----------------------------------------------------|
-----------------------------------------------------|

----------------------17--L--14--------------14--|
------15------17-----------------17--15--17------|
--14------14------14-----------------------------|
-------------------------------------------------|
-------------------------------------------------|
-------------------------------------------------|

--------------17p--14------16p--12-------19p--16------|
--15------15-----------15-----------12------------17--|
------------------------------------------------------|
------------------------------------------------------|
------12----------------------------------------------|
------------------------------------------------------|

--------------21------19--L--17--------------17--|
------19-------------------------21--19--21------|
--18------18------18-----------------------------|
-------------------------------------------------|
-------------------------------------------------|
-------------------------------------------------|

--------------21p--17------19p--16-----------------------|
--19------19-----------19-----------17-------------------|
------18--------------------------------16---------------|
-------------------------------------------18----18----1-|
----------------------------------------------19----19---|
---------------------------------------------------------|

--19------------------------------------|
----------------17p--0--19p--0--17p--0--|
----------------------------------------|
----------------------------------------|
----------------------------------------|
----------------------------------------|

------------------------------------------------|
--16p--0--14p--0--12p--0--10p--0--9p--0--7p--0--|
------------------------------------------------|
------------------------------------------------|
------------------------------------------------|
------------------------------------------------|

|---------------14----------17--14--16--14------------|
|-----------17------17----------------------17--------|
|*------16--------------16----------------------16----|
|*--14------------------------------------------------|
--------------14--------------------------------------|
----------17------17------15--14--------------14------|
------16--------------16----------16--14--16----------|
--14--------------------------------------------------|
------------------------------------------------------|
------------------------------------------------------|

--------------14----------17--14--16--14----------|
------------------17----------------------17------|
--16------16----------16----------------------16--|
------14------------------------------------------|
--------------------------------------------------|
--------------------------------------------------|

--22--19--21--22p-21-19-------------------------------||
-------------------------22--19--22------22------22---||
-------------------------------------21------19------*||
-----------------------------------------------------*||
------------------------------------------------------||
------------------------------------------------------||

---------------------------19--22--19--24--21------|
-----------------------20----------------------22--|
--------------16S--19------------------------------|
----------19---------------------------------------|
------17-------------------------------------------|
--15-----------------------------------------------|

                    |--3--|
-----7--------7--9--5h-7p-5-4-----|
--------5--7-------------------7--|
--4-------------------------------|
----------------------------------|
----------------------------------|
----------------------------------|

-----7---------------------------|
--------5--7--4--5--4h-5p-4------|
--4-------------------------6----|
------------------------------7--|
---------------------------------|
---------------------------------|

                    |--3--|
-----7--------7--9--5h-7p-5-4-----|
--------5--7-------------------7--|
--4-------------------------------|
----------------------------------|
----------------------------------|
----------------------------------|

-----------------------------|
--5--4-----------------------|
--------6--4-----------------|
--------------7--6--4--6--7--|
-----------------------------|
-----------------------------|

                    |--3--|
-----7--------7--9--5h-7p-5-4-----|
--------5--7-------------------7--|
--4-------------------------------|
----------------------------------|
----------------------------------|
----------------------------------|

-----7---------------------------|
--------5--7--4--5--4h-5p-4------|
--4-------------------------6----|
------------------------------7--|
---------------------------------|
---------------------------------|

                    |--3--|
-----7--------7--9--5h-7p-5-4-----|
--------5--7-------------------7--|
--4-------------------------------|
----------------------------------|
----------------------------------|
----------------------------------|

--7--4--5--4-----------------|
--------------7--5--4--5--7--|
-----------------------------|
-----------------------------|
-----------------------------|
-----------------------------|

                      |--3--|
|------7--------7--9--5h-7p-5-4-------|
|---------5--7-------------------7----|
|*--4---------------------------------|
|*------------------------------------|
|-------------------------------------|
|-------------------------------------|
-----7--------------------------------|
--------5--7--4--5--4h-5p-4-----------|
--4-------------------------6---------|
------------------------------7-------|
--------------------------------------|
--------------------------------------|

                    |--3--|
-----7--------7--9--5h-7p-5-4-----|
--------5--7-------------------7--|
--4-------------------------------|
----------------------------------|
----------------------------------|
----------------------------------|

-----------------------------|
--5--4-----------------------|
--------6--4-----------------|
--------------7--6--4--6--7--|
-----------------------------|
-----------------------------|

                    |--3--|
-----7--------7--9--5h-7p-5-4-----|
--------5--7-------------------7--|
--4-------------------------------|
----------------------------------|
----------------------------------|
----------------------------------|

-----7---------------------------|
--------5--7--4--5--4h-5p-4------|
--4-------------------------6----|
------------------------------7--|
---------------------------------|
---------------------------------|

                    |--3--|
-----7--------7--9--5h-7p-5-4-----|
--------5--7-------------------7--|
--4-------------------------------|
----------------------------------|
----------------------------------|
----------------------------------|

--7--4--5--4------------------||
--------------7--5--4--5--7---||
-----------------------------*||
-----------------------------*||
------------------------------||
------------------------------||

                    |--3--|
-----7--------7--9--5h-7p-5-4-----|
--------5--7-------------------7--|
--4-------------------------------|
----------------------------------|
----------------------------------|
----------------------------------|

-----7---------------------------|
--------5--7--4--5--4h-5p-4------|
--4-------------------------6----|
------------------------------7--|
---------------------------------|
---------------------------------|

                    |--3--|
-----7--------7--9--5h-7p-5-4-----|
--------5--7-------------------7--|
--4-------------------------------|
----------------------------------|
----------------------------------|
----------------------------------|

-----7---------------------------|
--------5--7--4--5--4h-5p-4------|
--4-------------------------6----|
------------------------------7--|
---------------------------------|
---------------------------------|

                    |--3--|
-----7--------7--9--5h-7p-5-4------------------|
--------5--7-------------------7--4h-5p-4------|
--4---------------------------------------6----|
--------------------------------------------7--|
-----------------------------------------------|
-----------------------------------------------|

                    |--3--|
-----7--------7--9--5h-7p-5-4-------|
--------5--7-------------------7----|
--4---------------------------------|
------------------------------------|
-----7------------------------------|
--------5--7--4--5--4h-5p-4---------|
--4-------------------------6-------|
------------------------------7-----|
------------------------------------|
------------------------------------|

                    |--3--|
-----7--------7--9--5h-7p-5-4-----|
--------5--7-------------------7--|
--4-------------------------------|
----------------------------------|
----------------------------------|
----------------------------------|

                    |--3--|
-----7--------7--9--5h-7p-5-4-----|
--------5--7-------------------7--|
--4-------------------------------|
----------------------------------|
----------------------------------|
----------------------------------|

-----7--------7--9--5h-7p-5-4------------------|
--------5--7-------------------7--4h-5p-4------|
--4---------------------------------------6----|
--------------------------------------------7--|
-----------------------------------------------|
-----------------------------------------------|

----------------------|-------------------------|
----------------------|-------------------------|
--9------------8br----|--L--------L-------------|
----------------------|--------------9br--L--L--|
----------------------|-------------------------|
----------------------|-------------------------|

-----------------------|----------------------|
-----------------------|----------------------|
-------------8----9----|------------------8---|
--/11------------------|--9--------L--9-------|
-----------------------|----------------------|
-----------------------|----------------------|

------9-9----L---------11-|--12--------L--16----------|
-----------------9-9------|---------------------14-12-|
--9-----------------------|---------------------------|
--------------------------|---------------------------|
--------------------------|---------------------------|
--------------------------|---------------------------|


-------------------------------|
--14------L-17br-L-L-16---14---|
-------------------------------|
-------------------------------|
-------------------------------|
-------------------------------|

-------------------------------|
--16------L-19br-L-L-17---16---|
-------------------------------|
-------------------------------|
-------------------------------|
-------------------------------|

           |--3-|  |--3-|      |--3-----------|
-----------9------------9------9------11br----|
--12b--------12-9-----9---12b----12-9---------|
------------------11b-------------------------|
----------------------------------------------|
----------------------------------------------|
----------------------------------------------|

                             |--3--|  |--3--|  |--3------|
--L----L-------------------------------------------------|
---------12p-9-------------------------------------------|
---------------11p-9p-8h-9h-11p-9p-8---------------------|
-------------------------------------11p-9p-7----------1-|
----------------------------------------------11p-9p-7---|
---------------------------------------------------------|

              |--3--|  |--3--|  |--3--|         |--3-----|
-----------------------------------------------------14--|
-------------------------------------14--------16-17-----|
-------------------------------13-16----13br-L-----------|
-------------------------11-14---------------------------|
--7~----L----------11-14---------------------------------|
-------------/9-12---------------------------------------|

               |--3--|  |--3--|  |--3--------------------|
--------------------14-16-17-19-16-17-14-16p-0-14p-0-12--|p
--16~----L-14-16-17--------------------------------------|
---------------------------------------------------------|

--9------21-16---------------16--------------------------|
---------------17p-16-----------16-------16--------------|
----------------------18p-16-------18-16----16-----------|
-----------------------------------------------18p-16-14-|
---------------------------------------------------------|
---------------------------------------------------------|


          |--6--|  |--6--|  |--6--|  |--6--|  |--6--| ---|
------------------------------------------------21----19-|
------------------------------------19----17-19----17----|
------------16----13----20----18-18----16----------------|
--14--L--14----11----18----16----------------------------|
---------------------------------------------------------|
---------------------------------------------------------|

--16b--17p-16-17-------------16p-14-16-------------14p-1-|
---------------------------------------------------------|
------------------18p-16-18-------------16p-14-16--------|
---------------------------------------------------------|
---------------------------------------------------------|
---------------------------------------------------------|

--14---11h-12h-14-16p-14p-12p-11-17p-14p-12p-11-19p-14p-|
--------------------------------------------------------|
--------------------------------------------------------|
--------------------------------------------------------|
--------------------------------------------------------|
--------------------------------------------------------|

-------------------------------------------|
-------------17----16br~-L--L-14-----------|
--14~----/14----14----------------16-------|
--------------------------------------16br-|
-------------------------------------------|
-------------------------------------------|

-----------------------------------|
-----------------------------------|
-----------------------------------|
--L----L--L-14-14~----L-16S-18-16~-|
-----------------------------------|
-----------------------------------|

-----------------------------------|
-----------19----19br--L-17---16---|
-------/16----16-------------------|
--L--------------------------------|
-----------------------------------|
-----------------------------------|

                                  |---3---|  |---3-------|
-------19br-L-L---17-16--16h-17h-19p-17p-16--------------|
--17----------------------------------------19p-17p-16---|
-------------------------------------------------------1-|
---------------------------------------------------------|
---------------------------------------------------------|
---------------------------------------------------------|

                |--3--|
-----------------------------19---------------|
--14---L----------14-17-19b---L-19br--L-17-19-|
-----------/13-16-----------------------------|
----------------------------------------------|
----------------------------------------------|
----------------------------------------------|

-------------------------------18---------|
--L---L-----------------------------------|
--------15-15br-L----15-16s-18----18~---L-|
------------------16----------------------|
------------------------------------------|
------------------------------------------|

---------------------------------------------------------|
--10p-0-9h-10-12p-0-10h-12-14p-0-12h-14-16p-0-14h-16-17--|p
---------------------------------------------------------|
---------------------------------------------------------|
---------------------------------------------------------|
---------------------------------------------------------|

----------------------------|----------------------|
--24~------L-12-12------L---|----------------------|
--------------------------4-|--4~------------L--L--|
----------------------------|----------------------|
----------------------------|----------------------|
----------------------------|----------------------|

---------------------------------------|
-----------7--------10--7--9--7--------|
--------9-----9------------------9-----|
-----9-----------9------------------9--|
--7------------------------------------|
---------------------------------------|

--------------------------------------|
-----------7--------------------------|
--------9-----9-----7--6-----------6--|
-----9-----------9--------9--7--9-----|
--7-----------------------------------|
--------------------------------------|

---------------------------------------|
-----------7--------10--7--9--7--------|
--------9-----9------------------9-----|
-----9-----------9------------------9--|
--7------------------------------------|
---------------------------------------|

--------------------------------------|
-----------7--------------------------|
--------9-----9-----7--6-----------6--|
-----9-----------9--------9--7--9-----|
--7-----------------------------------|
--------------------------------------|

---------------------------------------|
-----------7--------10--7--9--7--------|
--------9-----9------------------9-----|
-----9-----------9------------------9--|
--7------------------------------------|
---------------------------------------|

--------------------------------------|
-----------7--------------------------|
--------9-----9-----7--6-----------6--|
-----9-----------9--------9--7--9-----|
--7-----------------------------------|
--------------------------------------|

---------------------------------------|
-----------7--------10--7--9--7--------|
--------9-----9------------------9-----|
-----9-----------9------------------9--|
--7------------------------------------|
---------------------------------------|

--------------------------------------|
-----------7--------------------------|
--------9-----9-----7--6-----------6--|
-----9-----------9--------9--7--9-----|
--7-----------------------------------|
--------------------------------------|

|-------------------------------------|
|-------------------------------------|
|*------------------------------------|
|*------------------------------------|
|--------7----------5-----4-----------|
|---0---------0--0-----5-----5--7--5--|

------------------------------------|
------------------------------------|
------------------------------------|
------------------------------------|
-------7---------5p--4--------------|
--0-----------0---------7--4--5--7--|

------------------------------------|
------------------------------------|
------------------------------------|
------------------------------------|
-------7----------5-----4-----------|
--0---------0--0-----5-----5--7--5--|

-------------------------------------||
-------------------------------------||
------------------------------------*||
------------4--6--7--6--4--------4--*||
-------7-------------------5--7------||
--0----------------------------------||

----------------------------------|
----------------------------------|
-------9--L------------7--9S--11--|
----------------------------------|
--7-------------------------------|
----------------------------------|

-----------------------------------------|
-----------------------------------------|
--7----7--L------L---6----------------6--|
-----------------------9p-7p-6h-7h-9-----|
-----------------------------------------|
-----------------------------------------|





--------------------------------------------|
--------------------------------------------|
--------------------------------------------|
--9----9--L------L----7p-6------------------|
---------------------------9p-5h-7h-9p-7p-5-|
--------------------------------------------|

-----------------------------------|
-----------------------------------|
-----------------------------------|
-----------------------------------|
--7----7--L------L----7S----17\----|
-----------------------------------|

-----------------------------------|
--------------------------------9--|
-------9--L------L-------9--11-----|
-----------------------------------|
--7--------------------------------|
-----------------------------------|

----------------------------------------------------|
--10p--9---------12--9--10p-9h-10p-9----------------|
----------11--9----------------------11--9----------|
--------------------------------------------11--7s--|
----------------------------------------------------|
----------------------------------------------------|

----------------------------------------------------|
----------------------------------------------------|
----------------------------------------------------|
--9----L-11p-9h-11p-9h-11p-9h-11p-9-------7--9--11--|
---------------------------------------9------------|
----------------------------------------------------|

-------------------------------------------------------|
-------------------------------------------------------|
-------------------------------------------------------|
--12p-11h-12p-11-9------11p--9-------------------------|
--------------------12----------12--11--9--11----------|
-----------------------------------------------12--10--|

---------------------------------------|
-----------------------10-----9-----7--|
---------------------------------------|
----------------6s--9------9-----9-----|
---------------------------------------|
--12------L----------------------------|

-------------------------------9-------------------|
----------------------------------10--12p--10p--9--|
--9h-10p-9p-7p--6--9--7--6-------------------------|
----------------------------9----------------------|
---------------------------------------------------|
---------------------------------------------------|

-------------10--12--14------------------------|
------9--10--------------10p--0--9p--0--7p--0--|
--11-------------------------------------------|
-----------------------------------------------|
-----------------------------------------------|
-----------------------------------------------|

                                |--3--|
-----------7--9--10--------------------------------|
--------7------------10p--0--7--9p-7p-0-5h-7p-5p-0-|
--7--9---------------------------------------------|
---------------------------------------------------|
---------------------------------------------------|
---------------------------------------------------|

------------------------------------------|
--5~------------L---17p--14--15p--14------|
--------------------------------------16--|
------------------------------------------|
------------------------------------------|
------------------------------------------|

-------------------------------------------------------|
-------------------------------------------------------|
--14--13-----------------------------------------------|
----------16--18p--16p--14------14---------------------|
----------------------------16------16--16g14----------|
-----------------------------------------------12--14--|

--------------------------------------------------------|
--------------------------------------------------------|
----------------------------------------------------11h-|
----------------11--14--11--12p--11------11h-12h-14-----|
--12S--11h--12-----------------------14-----------------|
--------------------------------------------------------|




 |-------5-------|                                 |-----|
---------------------------------------------------------|
--12h-14h-15p-14p-12-------------------------------------|
---------------------14p-13p-11--------------------------|
--------------------------------14p-12p-11h-12h-14p-12p--|
---------------------------------------------------------|
---------------------------------------------------------|

---------------------------------|
-------14br--L------L------------|
---------------------------------|
---------------------------------|
---------------------------------|
--0------------------------------|

---------14g0--9p--0--7p--0--------------------|
--L--15----------------------10p--0--9p--7-----|
--------------------------------------------7--|
-----------------------------------------------|
-----------------------------------------------|
-----------------------------------------------|

--------------------------12----------12--14--|
------------------------------10--12----------|
--9------L-------6h-7S-9----------------------|
----------------------------------------------|
----------------------------------------------|
----------------------------------------------|

--10h-12p-10p-9--------12-------------------------------|
----------------12---------10--12--9--10--9h-10p-9p-7---|
--------------------9---------------------------------7-|
--------------------------------------------------------|
--------------------------------------------------------|
--------------------------------------------------------|

-------9b--L------L------------|
-------------------------------|
--9----------------------------|
-------------------------------|
-------------------------------|
-------------------------------|

--/12--9--0--10p--0--12p--0--14p--0--16p--0--17--|
-------------------------------------------------|
-------------------------------------------------|
-------------------------------------------------|
-------------------------------------------------|
-------------------------------------------------|

--16~------------L--12-----------------|
------------------------12--10--9--12--|
---------------------------------------|
---------------------------------------|
---------------------------------------|
---------------------------------------|

----------------------------------------|
--12--9---------------------------------|
---------9------------------------------|
------------11s--9p--7--9~------L-------|
----------------------------------------|
----------------------------------------|

---------------------------------------------------------|
---------------------------------------------------------|
-----------------------------------------------11--------|
---------9h-11-----------------------11h-12-14----14p-12-|
--11--12-------12h-14p-12p-11-12h-14---------------------|
---------------------------------------------------------|

  |--3--|                                         |--3---|
-----------------------9---------------------------------|
--9-10p-9------9-10-12---10-12-9-10-10p-9-9p-7----9------|
----------11-9---------------------------------9----11-9-|
---------------------------------------------------------|
---------------------------------------------------------|
---------------------------------------------------------|

                                 |--3--|
---------------------------------------------------------|
---------------------------------------------------------|
--9------------------------------------------------------|
----12-11-9-12-11-9----11-12p-11-9-12-12-12-11p-9-11S-14-|
--------------------12-----------------------------------|
---------------------------------------------------------|

               |--3--|
--------------------------------14h-16-16p-14-----------|
--12-14-15-14-------------15-17---------------17--19-17-|
--------------16-14-13-16-------------------------------|
--------------------------------------------------------|
--------------------------------------------------------|
--------------------------------------------------------|


--21br------L-L-L----21br----21br----L--19--|
--------------------------------------------|
--------------------------------------------|
--------------------------------------------|
--------------------------------------------|
--------------------------------------------|

--21p-19-21p-19---------19------------------------------|
----------------22--21------22--21--19--22--21--19------|
----------------------------------------------------21--|
--------------------------------------------------------|
--------------------------------------------------------|
--------------------------------------------------------|

--------21br--L------------L--L--19--|
-------------------------------------|
--19---------------------------------|
-------------------------------------|
-------------------------------------|
-------------------------------------|

--21p-19-21p-19---------19--------------24--22--21--19--|
----------------22--21------22--21--19------------------|
--------------------------------------------------------|
--------------------------------------------------------|
--------------------------------------------------------|
--------------------------------------------------------|

--------24------24------22------21--------------|
----------------------------------------24--22--|
--21--------21------21------21------21----------|
------------------------------------------------|
------------------------------------------------|
------------------------------------------------|

--------24------24------22------21--------------|
----------------------------------------24--22--|
--21--------21------21------21------21----------|
------------------------------------------------|
------------------------------------------------|
------------------------------------------------|

------24------22------21----------------------24--|
------------------------------24------22----------|
--21------21------21------21------21------21------|
--------------------------------------------------|
--------------------------------------------------|
--------------------------------------------------|

------22------21------------------------------22--|
----------------------24------22------24----------|
--21------21------21------21------21------21------|
--------------------------------------------------|
--------------------------------------------------|
--------------------------------------------------|

--24-24-24-24-24-24-24-24-24-24-24-24-24-24-24-24-24-24-|
--------------------------------------------------------|
--------------------------------------------------------|
--------------------------------------------------------|
--------------------------------------------------------|
--------------------------------------------------------|

--22h-24-22-21-22-24-22p-21-21h-22-24-22-21h-22-22h-24-2-|
---------------------------------------------------------|
---------------------------------------------------------|
---------------------------------------------------------|
---------------------------------------------------------|
---------------------------------------------------------|

--22-21-19-21-22-21-21-19-19-17-19-21-22-21-19-18-19-19-|
--------------------------------------------------------|
--------------------------------------------------------|
--------------------------------------------------------|
--------------------------------------------------------|
--------------------------------------------------------|

--17-19-19-17-17-19-19-17-16-16-17-19-19-17-16-15-14-16-|
--------------------------------------------------------|
--------------------------------------------------------|
--------------------------------------------------------|
--------------------------------------------------------|
--------------------------------------------------------|


                                              |--3--|
--14-14-16-16-14-12-14-16-14-12--12-14-14-16-16-14-12-12-|
---------------------------------------------------------|
---------------------------------------------------------|
---------------------------------------------------------|
---------------------------------------------------------|
---------------------------------------------------------|


          |--3-|        |-3------------------------------|
--9-10-L-12-10-9-10-12-10-7---10-12-10-9-9-10-10-9-7-9-1-|
----------------------------9----------------------------|
---------------------------------------------------------|
---------------------------------------------------------|
---------------------------------------------------------|
---------------------------------------------------------|

--4-5-4-2-2-0-------------------------------------------|
--------------4-2-0-0-2-3-5-3-2-------------------------|
--------------------------------6-7-7-6-6-4-------------|
--------------------------------------------7-4-6-7-9-7-|
--------------------------------------------------------|
--------------------------------------------------------|

------------------------------------------------------|
------------------------------------------------------|
------------------------------------------------------|
------------------------------------------------------|
--11-9-7--------11-9-7--------------------------------|
---------10-9-7--------10-9-7-9-7-5-9-7-5-7-5-4-7-5-4-|

-------------------------12---------------|
-------15b~--L------L--------15--12-------|
-------------------------------------14b--|
------------------------------------------|
------------------------------------------|
--0---------------------------------------|

--------------------------------------------------|
--12----------------------------------------------|
------15--14--13--12------------------------------|
----------------------14--12------------------14--|
------------------------------14--13--12--11------|
--------------------------------------------------|

--------------------------------------------|
--------------------------------------------|
----------------------------------------12--|
--------------------------------12--14------|
------------------------12--14--------------|
--12------L----/12--15----------------------|

------------------------12------14------15------|
------------12--14--15------12------12------12--|
--14--12-13-------------------------------------|
------------------------------------------------|
------------------------------------------------|
------------------------------------------------|

--16-----------14-----------12-----------12-----------|
------------------------------------------------------|
------16S--14------14S--13------13S--14------14S--16--|
------------------------------------------------------|
------------------------------------------------------|
------------------------------------------------------|

--16------17------18------19~------L-------|
------15------14------13-------------------|
-------------------------------------------|
-------------------------------------------|
-------------------------------------------|
-------------------------------------------|

--12S--19--L--21b------21b--21b--21b--21b--21b--21br--|
------------------------------------------------------|
------------------------------------------------------|
------------------------------------------------------|
------------------------------------------------------|
------------------------------------------------------|

--L--L--21pbr--L--21pbr--L--21pbr--L--21pbr--L--21pbr-L-|
--------------------------------------------------------|
--------------------------------------------------------|
--------------------------------------------------------|
--------------------------------------------------------|
--------------------------------------------------------|

--22b------L----22b~--22b~------------|
--------------------------------------|
--------------------------------------|
--------------------------------------|
--------------------------------------|
--------------------------------------|
Tap to rate this tab
 
# A B C D E F G H I J K L M N O P Q R S T U V W X Y Z