Guitaretab - guitar tabs
Song name
# A B C D E F G H I J K L M N O P Q R S T U V W X Y Z

John Petrucci - Animate Inanimate tab

Gtr I (E A D G B E) - 'Distorted [Lead]'
Gtr II (E A D G B E) - 'Distorted [Centre]'
Gtr III (E A D G B E) - 'Distorted [Left]'
Gtr IV (E A D G B E) - 'Distorted [Right]'
Gtr V (E A D G B E) - 'Clean [Left]'
Gtr VI (E A D G B E) - 'Clean [Right]'


 Intro
  Moderately/Fast Q=134
  N.C.
 2/2
  Gtr II
  E   +E  E E E E E E     +E  E E E E E S S E
|-----------------------|---------------------|
|-----------------------|---------------------|
|-6b7r(6)-----------6b7r|=(6)-----------------|
|---------7---5h7-------|-----7---5h7---------|
|-----------0-----0-----|-------0-----0-4-5-7-|
|-----------------------|---------------------|


                     ~~~~~~~~
  E   +E  E E E E E  E   +E  E E E E E T T S E
|----------------------|-------------------------|
|----------------------|-------------------------|
|-6b7r(6)--------------|-------------------------|
|---------7---5h7---/7-|-(7)---------3-2h3p2-----|
|-----------0-----0----|-----0-1-4s5---------5---|
|----------------------|-------------------------|


  E   +E  E E E E E E     +E  E E E   E E  E E
|-----------------------|----------------------|
|-----------------------|----------------------|
|-6b7r(6)-----------6b7r|=(6)---6h7-/12s9-\3p2-|
|---------7---5h7-------|-----7----------------|
|-----------0-----0-----|----------------------|
|-----------------------|----------------------|


                              Gtrs III, IV
                     ~~~~~~~~
                                                  |-3-|
  E   +E  E E E E E  E   +Q   S S S S S S S S S S S S S
|----------------------|----------------------------------||
|----------------------|----------------------------------||
|-6b7r(6)--------------|----------------------------------||
|---------7---5h7---/7-|-(7)--------3-5-6-5-3-------------||
|-----------0-----0----|------4-5-7-----------7-5-4-5-7---||
|----------------------|----------------------------------||


         N.C.
  Gtr I
                                           ~~~
   a      +H            +Q     +E   E      H.            E    E
|-15b17==(15)----------(15)r==(15)------|-----------------------|
|----------------------------------17---|-17------------15---17-|
|---------------------------------------|-----------------------|
|---------------------------------------|-----------------------|
|---------------------------------------|-----------------------|
|---------------------------------------|-----------------------|
|
| Gtr II
|                                          ~~~
|  a      +H            +Q     +E   E      H.            E    E
|---------------------------------------|-----------------------|
|-15b17==(15)----------(15)r==(15)-14---|-14-----------------14-|
|---------------------------------------|---------------15------|
|---------------------------------------|-----------------------|
|---------------------------------------|-----------------------|
|---------------------------------------|-----------------------|
|
|        Gtrs III, IV
|                    PM         PM              PM    PM-----|
|          E   +E  E E   E  E   E   E     +E  E E E E E  S S  E
|---------------------------------------|-----------------------|
|---------------------------------------|-----------------------|
|----------6b7r(6)------------------6b7r|=(6)-------------------|
|------------------7-----5h=7-----------|-----7---5h7-----------|
|--------------------0----------0-------|-------0-----0--4-5--7-|
|---------------------------------------|-----------------------|


   ~~~~~                       ~~~
   H.               +E    E    H.            E      E
|---------------------------|-------------------------|
|-14---------------(14)\-10-|-10------------11--------|
|---------------------------|----------------------12-|
|---------------------------|-------------------------|
|---------------------------|-------------------------|
|---------------------------|-------------------------|
|
|  ~~~~~                       ~~~
|  H.               +E    E    H.            E      E
|---------------------------|-------------------------|
|---------------------------|-------------------------|
|-14---------------(14)\--9-|--9------------10--------|
|---------------------------|----------------------12-|
|---------------------------|-------------------------|
|---------------------------|-------------------------|
|
|            PM      PM   ~~~~~~~~
|  E   +E  E E E E   E    E   +E  E E E E E  T T S  E
|---------------------------|-------------------------|
|---------------------------|-------------------------|
|--6b7r(6)------------------|-------------------------|
|----------7---5h7-------/7-|-(7)---------3--2h3p2----|
|------------0-------0------|-----0-1-4s5-----------5-|
|---------------------------|-------------------------|


   ~~~~~                       ~~~
   Q.         E  Q    Q        Q.       E   Q    Q
|---------------------------|-------------------------|
|-14---------11-11---10-----|-------------------------|
|---------------------------|-12------\10--10---12----|
|---------------------------|-------------------------|
|---------------------------|-------------------------|
|---------------------------|-------------------------|
|
|  ~~~~~                       ~~~
|  Q.         E  Q    Q        Q.       E   Q    Q
|---------------------------|-------------------------|
|-10------------------------|-------------------------|
|------------12-12---10-----|--9-------\7---7----9----|
|---------------------------|-------------------------|
|---------------------------|-------------------------|
|---------------------------|-------------------------|
|
|             PM      PM
|  E   +E  E  E  E E  E E     +E  E E   E   E E  E  E
|---------------------------|-------------------------|
|---------------------------|-------------------11p10-|
|--6b7r(6)--------------6b7r|=(6)---6h==7-/12s9-\3p=2-|
|----------7-----5h7--------|-----7-------------------|
|-------------0-------0-----|-------------------------|
|---------------------------|-------------------------|


   ~~~~~~~~~~~~~~~~~~~~      ~~~
   H.              +E   E    W
|-------------------------|------------------------------------------||
|-------------------------|------------------------------------------||
|-\9---------------(9)-\6-|--6---------------------------------------||
|-------------------------|------------------------------------------||
|-------------------------|------------------------------------------||
|-------------------------|------------------------------------------||
|
|  ~~~~~~~~~~~~~~~~~~~~      ~~~
|  H.              +E   E    W
|-------------------------|------------------------------------------||
|-------------------------|------------------------------------------||
|-\6---------------(6)-\2-|--2---------------------------------------||
|-------------------------|------------------------------------------||
|-------------------------|------------------------------------------||
|-------------------------|------------------------------------------||
|
|            PM     PM  ~~~~~~~~
|                                |----6----| |----6----| |----6----|
|  E   +E  E E E E  E   E   +Q   S S S S S S S S S S S S S S S S S S
|-------------------------|------------------------------------------||
|-------------------------|------------------------------------------||
|--6b7r(6)----------------|------------------------------------------||
|----------7---5h7-----/7-|-(7)--------3-5-6-5-3---------------------||
|------------0------0-----|------4-5-7-----------7-5-4-0-------------||
|-------------------------|------------------------------6-6-5-5-4-4-||


  N.C.                                                     A5  BbG5  F5G5E5
  Gtrs III, IV
                                      ~
  E E E E E E  q      E  E E E E E  E E   +E   E E E E E E E   E E E E E E E E
|------------------|--------------------|--------------------|-----------------|
|------------------|--------------------|--------------------|-----------------|
|------------------|--------------------|--------------------|-----------------|
|------------------|--------------------|--------------------|-----------------|
|-------5-4--------|-----------5-4-/8-7-|-(7)\-----5-4-----7-|-8-5-x-3-5-2-x-x-|
|-3-5-6-----5---|--3-5-6----------|------3-6-----5-x-5-|-6-3-x-1-3-0-x-x-|


  N.C.
                                      ~
  E E E E E E  q      E  E E E E E  E E
|------------------|--------------------|
|------------------|--------------------|
|------------------|--------------------|
|------------------|--------------------|
|-------5-4--------|-----------5-4-/8-7-|
|-3-5-6-----5---|--3-5-6----------|


                                    BbA5
                            PM    PM
  +E   E E E E E E E    E E E E E E E E
|--------------------|------------------|
|--------------------|------------------|
|--------------------|------------------|
|--------------------|-/8-7-------------|
|-(7)\-------5-4-----|--------8-7---8-7-|
|------3-5-6-----6-5-|------0-----0-6-5-|


  N.C.
                                                ~
  E E  E E   E   E    q         E  E E E E E  E E
|----------------------------|--------------------|
|----------------------------|--------------------|
|----------------------------|--------------------|
|----------------------------|--------------------|
|--------5---4---------------|-----------5-4-/8-7-|
|-3-5--6---------5--------|--3-5-6----------|
|
| Gtr V
| Q    E E   E   E    E   E    +W
|--------0------(0)------(0)-|-(0)----------------|
|------3----(3)------(3)-----|--------------------|
|----------------------------|--------------------|
|----------------------------|--------------------|
|----------------------------|--------------------|
|----------------------------|--------------------|
|
| Gtr VI
| Q    E E   E   E    E   E    +W
|--------0------(0)------(0)-|-(0)----------------|
|-----15---(15)-----(15)-----|--------------------|
|----------------------------|--------------------|
|----------------------------|--------------------|
|----------------------------|--------------------|
|----------------------------|--------------------|


                            A5    Bb5 G5   F5G5   E5
  +E   E  E E   E   E    E   E     E  E  E E   E   E    E   E
|-------------------------------|------------------------------|
|-------------------------------|------------------------------|
|-------------------------------|------------------------------|
|-------------------------------|------------------------------|
|-(7)\------5---4------------7--|--8--5--x-3---5---2----x---x--|
|------3--6---------5----x---5--|--6--3--x-1---3---0----x---x--|
|
|  Q      E E   E   E    E   E    +Q     E E   E   E    E   E
|-----------0------(0)------(0)-|-(0)------0------(0)------(0)-|
|---------3----(3)------(3)-----|--------6----(6)------(6)-----|
|-------------------------------|------------------------------|
|-------------------------------|------------------------------|
|-------------------------------|------------------------------|
|-------------------------------|------------------------------|
|
|  Q      E E   E   E    E   E    +Q     E E   E   E    E   E
|-----------0------(0)------(0)-|-(0)------0------(0)------(0)-|
|--------15---(15)-----(15)-----|-------18---(18)-----(18)-----|
|-------------------------------|------------------------------|
|-------------------------------|------------------------------|
|-------------------------------|------------------------------|
|-------------------------------|------------------------------|


  N.C.
                                                ~
  E E  E E   E   E    E   E     E  E E E E E  E E
|----------------------------|--------------------|
|----------------------------|--------------------|
|----------------------------|--------------------|
|----------------------------|--------------------|
|--------5---4---------------|-----------5-4-/8-7-|
|-3-5--6---------5-----|--3-5-6----------|
|
| Q    E E   E   E    E   E    +W
|--------0------(0)------(0)-|-(0)----------------|
|------3----(3)------(3)-----|--------------------|
|----------------------------|--------------------|
|----------------------------|--------------------|
|----------------------------|--------------------|
|----------------------------|--------------------|
|
| Q    E E   E   E    E   E    +W
|--------0------(0)------(0)-|-(0)----------------|
|-----15---(15)-----(15)-----|--------------------|
|----------------------------|--------------------|
|----------------------------|--------------------|
|----------------------------|--------------------|
|----------------------------|--------------------|


                                                      A5   Bb5
                                         PM        PM
  +E   E  E E   E   E    E   E     E  E  E E   E   E    E   E
|-------------------------------|------------------------------||
|-------------------------------|------------------------------||
|-------------------------------|------------------------------||
|-------------------------------|-/8--7------------------------||
|-(7)\----------5---4-----------|----------8---7--------7---8--||
|------3--5-6------------6---5--|--------0---------0----5---6--||
|
|  Q      E E   E   E    E   E    +Q     E E   E   E    E   E
|-----------0------(0)------(0)-|-(0)------0------(0)------(0)-||
|---------3----(3)------(3)-----|--------8----(8)------(8)-----||
|-------------------------------|------------------------------||
|-------------------------------|------------------------------||
|-------------------------------|------------------------------||
|-------------------------------|------------------------------||
|
|  Q      E E   E   E    E   E    +Q     E E   E   E    E   E
|-----------0------(0)------(0)-|-(0)------0------(0)------(0)-||
|--------15---(15)-----(15)-----|-------20---(20)-----(20)-----||
|-------------------------------|------------------------------||
|-------------------------------|------------------------------||
|-------------------------------|------------------------------||
|-------------------------------|------------------------------||


    N.C.
    Gtr II
    E Q  E E E E E   E Q  E E E E E   E Q  E E E E E   E E E E E E Q
||-----------------|----------------|----------------|------------------||
||o----------------|----------------|----------------|-----------------o||
||----2----2h3---0h|=2-2----2h3---0h|=2-2----2h3---0h|=2----------------||
||-----------------|----------------|----------------|-----2h3---0h2----||
||o-0----0-----0---|------0-----0---|------0-----0---|---0-----0-------o||
||-----------------|----------------|----------------|------------------||


    Gtrs III, IV
           ~~~          ~~~
     S  S  E.  S  S  S  Q    S  S  S  S
||--------------------------------------|
||o-15p11-14----------------------------|
||------------15-12-15-14---15p12-14p12-|
||--------------------------------------|
||o-------------------------------------|
||--------------------------------------|
|
|   Gtr II
|    E     Q      E     E E  E     E
||--------------------------------------|
||o-------------------------------------|
||---------2------------2h3--------0h===|
||--------------------------------------|
||o--0------------0----------0----------|
||--------------------------------------|


         ~~                                           ~~        ~~~
   S  S  Q   S  S  S  T  T  S  S  S  S  S  S    S  S  Q   S  S  Q    S  S  S  S
|-----------17p13-15-17p15p13----13----------|----18-17---------------------------|
|-----------------------------17----15-17-14-|-15--------18p15-17---17p14-15p14---|
|----12--------------------------------------|------------------------------------|
|-15----14-----------------------------------|------------------------------------|
|--------------------------------------------|------------------------------------|
|--------------------------------------------|------------------------------------|
|
|  E     Q   E     E        E     E     E       E     Q   E     E E  E     E
|--------------------------------------------|------------------------------------|
|--------------------------------------------|------------------------------------|
|--2-----2---------2h=======3-----------0h===|==2-----2---------2h3--------0h=====|
|--------------------------------------------|------------------------------------|
|------------0--------------------0----------|------------0----------0------------|
|--------------------------------------------|------------------------------------|


         ~~                     ~~          ~~~          ~~~
   S  S  Q    S  S  S  S  S  S  Q     S  S  E.  S  S  S  Q    S  S  S  S
|----------------------------------|-------------------------18p15-17p15-|
|----14----------------------------|-15p11-14----------------------------|
|-15----14---15p12-14p12----12-----|-----------15-12-15-14---------------|
|------------------------15----14--|-------------------------------------|
|----------------------------------|-------------------------------------|
|----------------------------------|-------------------------------------|
|
|  E     E E  E     E     E     Q     E     Q      E     E E  E     E
|----------------------------------|-------------------------------------|
|----------------------------------|-------------------------------------|
|--2-------------------------------|--------2------------2h3--------0h===|
|----------2h=3-----------0h====2--|-------------------------------------|
|--------0----------0--------------|--0------------0----------0----------|
|----------------------------------|-------------------------------------|


         ~~
   S  S  Q   S  S  S  T  T  S  S  S  S  S  S
|----15-----22p18-21-22p21p18----18----------|
|-18----17--------------------22----20-22-18-|
|--------------------------------------------|
|--------------------------------------------|
|--------------------------------------------|
|--------------------------------------------|
|
|  E     Q   E     E        E     E     E
|--------------------------------------------|
|--------------------------------------------|
|--2-----2---------2h=======3-----------0----|
|--------------------------------------------|
|------------0--------------------0----------|
|--------------------------------------------|


         ~~        ~~~                      ~~                  ~~
   S  S  Q   S  S  Q    S  S  S  S    S  S  Q    S S  S S  S S  Q
|----22-21--18p15-17---15p12-13p12-|----12-------------------------|
|-20-------------------------------|-15----14----------------------|
|----------------------------------|------------12p9-10p9----9-----|
|----------------------------------|----------------------12---11--|
|----------------------------------|-------------------------------|
|----------------------------------|-------------------------------|
|
|  E     Q   E     E E  E     E       E     E E  E    E    E    Q
|----------------------------------|-------------------------------|
|----------------------------------|-------------------------------|
|--2-----2---------2h3--------0h===|==2----------------------------|
|----------------------------------|----------2h=3---------0h===2--|
|------------0----------0----------|--------0---------0------------|
|----------------------------------|-------------------------------|


         ~~~          ~~~
   S  S  E.  S  S  S  Q    S  S  S  S
|--------------------------------------|
|-15p11-14-----------------------------|
|-----------15-14-15-12---15p12-14p12--|
|--------------------------------------|
|--------------------------------------|
|--------------------------------------|
|
|  E     Q      E     E E  E     E
|--------------------------------------|
|--------------------------------------|
|--------2------------2h3--------0h====|
|--------------------------------------|
|--------------------------------------|
|--3------------3----------3-----------|


                     ~~~~~~~
                                              |--3--|
   S  S  S  S  S  S  E  +E  S  S  T  T  T  T  S  S  S
|--------------------------17-13-15h17p15p13----------|
|--------------------------------------------17p15p14-|
|----12-------12-14-12-(12)---------------------------|
|-15----14-15-----------------------------------------|
|-----------------------------------------------------|
|-----------------------------------------------------|
|
|  E     Q           E   E  E     E           E
|-----------------------------------------------------|
|-----------------------------------------------------|
|--2-----2---------------2h=3-----------------0h======|
|-----------------------------------------------------|
|-----------------------------------------------------|
|--------------------3------------3-------------------|


                     ~~                                                                  ~~~
   |------6-------|
   S  S  S  S  S  S  Q    S  S  S  S  S  S  S  S    S  S  S  S  S  S  S  S  S  S  S  S   Q
|------------------------------------------------|--------------------------------------------||
|------------------------18-15-17-18-15-14-------|-------------------------------18-15-/22---o||
|-15p14p12----------14---------------------17-16-|-15-14-------------18-17-16-15--------------||
|----------15p14p12------------------------------|-------17-16-15-14--------------------------||
|------------------------------------------------|-------------------------------------------o||
|------------------------------------------------|--------------------------------------------||
|
|  E        Q          E  E     E     E     E       E     E     E     E     E     E      Q
|------------------------------------------------|--------------------------------------------||
|------------------------------------------------|-------------------------------------------o||
|--2--------2-------------2h====3-----------0h===|==2-----------------------------------------||
|------------------------------------------------|--------------2h====3-----------0h=====2----||
|------------------------------------------------|-------------------------------------------o||
|----------------------1--------------1----------|--------0-----------------0-----------------||


  N.C.
  Gtrs III, IV
  E E  E E   E   E    Q         E  E E E E E  E E
|----------------------------|--------------------|
|----------------------------|--------------------|
|----------------------------|--------------------|
|----------------------------|--------------------|
|--------5---4---------------|-----------5-4-/8-7-|
|-3-5--6---------5--------|--3-5-6----------|
|
| Gtr V
| Q    E E   E   E    E   E    +W
|--------0------(0)------(0)-|-(0)----------------|
|------3----(3)------(3)-----|--------------------|
|----------------------------|--------------------|
|----------------------------|--------------------|
|----------------------------|--------------------|
|----------------------------|--------------------|
|
| Gtr VI
| Q    E E   E   E    E   E    +W
|--------0------(0)------(0)-|-(0)----------------|
|-----15---(15)-----(15)-----|--------------------|
|----------------------------|--------------------|
|----------------------------|--------------------|
|----------------------------|--------------------|
|----------------------------|--------------------|


                            A5    Bb5 G5   F5G5   E5
  +E   E  E E   E   E    E   E     E  E  E E   E   E    E   E
|-------------------------------|------------------------------||
|-------------------------------|------------------------------||
|-------------------------------|------------------------------||
|-------------------------------|------------------------------||
|-(7)\------5---4------------7--|--8--5--x-3---5---2----x---2--||
|------3--6---------5----x---5--|--6--3--x-1---3---0----x---0--||
|
|  Q      E E   E   E    E   E    +Q     E E   E   E    E   E
|-----------0------(0)------(0)-|-(0)------0------(0)------(0)-||
|---------3----(3)------(3)-----|--------6----(6)------(6)-----||
|-------------------------------|------------------------------||
|-------------------------------|------------------------------||
|-------------------------------|------------------------------||
|-------------------------------|------------------------------||
|
|  Q      E E   E   E    E   E    +Q     E E   E   E    E   E
|-----------0------(0)------(0)-|-(0)------0------(0)------(0)-||
|--------15---(15)-----(15)-----|-------18---(18)-----(18)-----||
|-------------------------------|------------------------------||
|-------------------------------|------------------------------||
|-------------------------------|------------------------------||
|-------------------------------|------------------------------||


  $
  $$
         F                G            Am          G           F
 4/4
  Gtr I
           ~~~~            ~~~~~~~~~~~~~~~~~~~~~~~~~~~~~
   a      +Q     +E   +E   Q.      E    +Q.      E  +Q.         S  S
|-19b20==(19)---(19)r(19)-19------17-|-(17)--------------------------|
|------------------------------------|----------17-(17)--------15-17-|
|------------------------------------|-------------------------------|
|------------------------------------|-------------------------------|
|------------------------------------|-------------------------------|
|------------------------------------|-------------------------------|
|
| Gtr III
|                 ~~~~~~~~~~~~  ~~~~~~~~~~~~  ~~~~~~~~~~
|          E  E   Q       +E  E Q       +E  E Q     +E     E E  E
|------------------------------------|-------------------------------|
|------------------------------------|-------------------------------|
|------------------------------------|-------------------------------|
|-----------------3-------(3)--------|-------------------------------|
|-------------3-----------------5----|--(5)---7-----(7)------5-------|
|----------1------------------3------|------5--------------3----1----|
|
| Gtr IV
|          PM---|             PM|           PM|
|                                                    |-3-|
|          E  E   E    E   E  E E  E     E  E E  E   S S S E E  E
|------------------------------------|-------------------------------|
|------------------------------------|-------------------------------|
|----------------------2---4-------4-|---5-------5---4h5p4-----------|
|-----------------3------------------|---------------------5---------|
|-------------3-----------------5----|--------7--------------5-------|
|----------1------------------3------|------5-------------------1----|


                            G                   A5     G5     E5      F
                                          ~~~~~~~~~~~~~~~~~~~~
                                 |--3--|
   E   a      +E   +E   +E   E   S  S  S  Q      +H       +E   +E   Q
|---------------------------------------------|-------------------------|
|-18--17b18==(17)-(17)r(17)-15--15h17p15------|-------------------------|
|----------------------------------------17---|-(17)-----(17)-(17)\-----|
|---------------------------------------------|-------------------------|
|---------------------------------------------|-------------------------|
|---------------------------------------------|-------------------------|
|
|                   ~~~~~~~~~~~~~~~~
| +E           E    Q       +E   Q.               Q.   E  +E    Q     E
|---------------------------------------------|--------3--(3)-----------|
|---------------------------------------------|--------3--(3)-----------|
|---------------------------------------------|---2----0--(0)-----------|
|-------------------3-------(3)---------------|---2----0--(0)---2-------|
|--------------3------------------------------|---0-------------2-------|
|-(1)----------------------------3------------|--------3--(3)---0-----1-|
|
|              PM-|              PM
| +E           E    E    E   E   E        E E     Q.   E  +E    Q     E
|---------------------------------------------|--------3--(3)-----------|
|---------------------------------------------|--------3--(3)-----------|
|------------------------2---4------------5-4-|---2----0--(0)-----------|
|-------------------3-------------------------|---2----0--(0)---2-------|
|--------------3------------------------------|---0-------------2-------|
|-(1)----------------------------3------------|--------3--(3)---0-----1-|


                          G                         Am                   G5      F
           ~~~~            ~~~                                            ~~~
   a      +Q     +E   +E   Q     +E    a      +E     +E   +E   +E   S  S  H
|-19b20==(19)---(19)r(19)-19----(19)\-20b22==(20)-|-(20)-(20)r(20)-20-19-17--------|
|-------------------------------------------------|--------------------------------|
|-------------------------------------------------|--------------------------------|
|-------------------------------------------------|--------------------------------|
|-------------------------------------------------|--------------------------------|
|-------------------------------------------------|--------------------------------|
|
|                 ~~~~~~~~~~~~    ~~~~~~~~~~~~~~~~~~~~~~~       ~~~~~~~~~~~~~
|         +E  E   Q       +E  E   Q                  +E    E    Q        +E  E E E
|-------------------------------------------------|--------------------------------|
|-------------------------------------------------|--------------------------------|
|-------------------------------------------------|--------------------------------|
|-----------------3-------(3)---------------------|--------------------------------|
|-------------3-------------------5---------------|--(5)--------7--------(7)---5---|
|---------(1)-----------------3-------------------|--------5-----------------3---1-|
|
|             PM|             PM|                          PM-|                  ~~~
|         +E  E   E    E   E  E   E            E      E    E    E   E     E  E E E
|-------------------------------------------------|--------------------------------|
|-------------------------------------------------|--------------------------------|
|----------------------2---4-------------------4--|---5-------------5-----7--4---5-|
|-----------------3-------------------------------|----------------------------5---|
|-------------3-------------------5---------------|-------------7------------------|
|---------(1)-----------------3-------------------|--------5-----------------------|


                   (Em)                 A5     Asus2      Am                F
                              |--3--|             |------6-------|  |------6-------|
   E     +E   E  E  E   E  E  S  S  S    +H       S  S  S  S  S  S  S  S  S  S  S  S
|-19b20r(19)-17-----------------------|-------------------12-13-15-13-15-17-15-17-19---|
|---------------20-18--17-18-17h18p17-|-(17)-----12-13-15------------------------------|
|-------------------------------------|------------------------------------------------|
|-------------------------------------|------------------------------------------------|
|-------------------------------------|------------------------------------------------|
|-------------------------------------|------------------------------------------------|
|
|             ~~~~~~~~~                                    ~~
| +E      E   Q    +E   E  E  E           Q.   E  E        Q                 E
|-------------------------------------|------------------------------------------------|
|-------------------------------------|------------------------------------------------|
|-------------------------------------|---2----4-----------5---------------------------|
|-------------3----(3)----------------|---2--------------------------------------------|
|---------3-------------------2-------|---0-------0------------------------------------|
|-(1)-------------------0--3----------|--------------------------------------1---------|
|
|~~~~~~~~                                                  ~~
| +E      E   E  E  E   E  E  E           Q.   E  E        Q                 E
|-------------------------------------|------------------------------------------------|
|-------------------------------------|------------------------------------------------|
|-(5)------------5--4-----------------|---2----4-----------5---------------------------|
|-------------------------------------|---2--------------------------------------------|
|-------------3---------------2-------|---0-------0------------------------------------|
|---------1-------------0--3----------|--------------------------------------1---------|


                          G           Am        G/B
           ~~~~            ~~~~~~~~~~~~~~~~~~~~~~~~~~
   a      +Q     +E   +E   H           H          Q.      E
|-19b20==(19)---(19)r(19)-19--------|-20--------/22------19-|
|-----------------------------------|-----------------------|
|-----------------------------------|-----------------------|
|-----------------------------------|-----------------------|
|-----------------------------------|-----------------------|
|-----------------------------------|-----------------------|
|
|                 ~~~~~~~~~~~~  ~~~~~~~~~~  ~~~~~~~~~  ~~~~~~
|         +E  E   Q       +E  E Q     +E  E Q    +E  E Q
|-----------------------------------|-----------------------|
|-----------------------------------|-----------------------|
|-----------------------------------|-----------------------|
|-----------------3-------(3)-------|------------------5----|
|-------------3-----------------5---|-(5)---7----(7)--------|
|---------(1)-----------------3-----|-----5----------7------|
|
|             PM|             PM|         PM|        PM|
|         +E  E   E    E   E  E E E    E  E E E   E  E E  E
|-----------------------------------|-----------------------|
|-----------------------------------|-----------------------|
|----------------------2---4------4-|--5------5---7-------7-|
|-----------------3-----------------|------------------5----|
|-------------3-----------------5---|-------7---------------|
|---------(1)-----------------3-----|-----5----------7------|


  N.C.                                  C
 2/4                             4/4
                             ~~~~~~~~~~~
       |---3---|
   E   S  S    S  E  a      +E     +H            E   E  E  E
|-------------19h22-22b24==(22)-|-(22)r---------20--22-24-24b25===||
|-20-----20---------------------|---------------------------------||
|-----19------------------------|---------------------------------||
|-------------------------------|---------------------------------||
|-------------------------------|---------------------------------||
|-------------------------------|---------------------------------||
|
|~~~~~                                       ~~~~~~~
| +E   S    S     Q                 E   E E  E  +H
|-------------------------------|---------------------------------||
|-------------------------------|---------------------------------||
|------0----7-------------------|---------------------------------||
|-(5)---------------------------|---------------------------------||
|-------------------------------|---------7-10-(10)---------------||
|-------------------------------|-------8-------------------------||
|
|                            ~~~~~~~~~~~PM--|
|  E   S    S     E          E     +E   E E  E   E   E  E  E
|-------------------------------|---------------------------------||
|--8\---------------------------|---------------------------------||
|------0----7----10----------9--|--(9)---------------7--9-10------||
|-------------------------------|---------------10----------------||
|-------------------------------|---------7-10--------------------||
|-------------------------------|-------8-------------------------||


  Dm            Bb               C              Am
                                  ~~~~~~~~~~~~~~~~~~~~~~~~~~~~
   +H.                +E   +E     H.                  +E   E
|-(24)---------------(24)r(24)-|-24------------------(24)\22-|
|------------------------------|-----------------------------|
|------------------------------|-----------------------------|
|------------------------------|-----------------------------|
|------------------------------|-----------------------------|
|------------------------------|-----------------------------|
|
|       ~~~       ~~                  ~~          ~~
|   E   Q.      E Q.              E   Q    +E   E Q.
|------------------------------|-----------------------------|
|------------------------------|-----------------------------|
|------------------------------|-----------------------------|
|------------------------------|-----------------------------|
|------12---------8------------|-----10---(10)\---7----------|
|-/10-----------6--------------|--8-------------5------------|
|
|   E   E  E  E E E    E    E     E   E E   E   E E    E   E
|------------------------------|-----------------------------|
|------------------------------|-----------------------------|
|----------9s10--------7s===9--|--------9s==5----------5s==7-|
|-------7----------------------|-----------------------------|
|-----------------8------------|-----10-----------7----------|
|-/10-----------6--------------|--8-------------5------------|


  Bb            Gm             F
                              3/4
 ~~~~~~~~~~~~~~~~~~~~~~~~~~~~~~~~~~~
   +H.                +E   E    +H.
|-(22)---------------(22)\20-|-(20)------------|
|----------------------------|-----------------|
|----------------------------|-----------------|
|----------------------------|-----------------|
|----------------------------|-----------------|
|----------------------------|-----------------|
|
|      ~          ~~                  ~
|   E  Q   +E   E Q.             E  E H
|----------------------------|-----------------|
|----------------------------|-----------------|
|----------------------------|-----------------|
|----------------------------|--------3--------|
|------8---(8)\---5----------|------3----------|
|---6-----------3------------|---1-------------|
|
|   E  E E  E   E E    E   E     E  E E E E E
|----------------------------|-----------------|
|----------------------------|-----------------|
|--------7s=3----------3s==2-|----------2-4-5--|
|-----------------0----------|--------3--------|
|------8---------------------|------3----------|
|---6-----------3------------|---1-------------|


                                                  To Coda
                                                  To Coda
  Am          Bb                       C                        G5
 2/4         3/4                                               2/4
   ~~~~~~~~~~~~~~~~                                              ~~~
   H            H.               a      +H           +E   +E     H
|-20--------|-/22-------------|-22b24==(22)---------(22)r(22)-|-22----------||
|-----------|-----------------|-------------------------------|-------------||
|-----------|-----------------|-------------------------------|-------------||
|-----------|-----------------|-------------------------------|-------------||
|-----------|-----------------|-------------------------------|-------------||
|-----------|-----------------|-------------------------------|-------------||
|
|    ~~              ~                          ~~~~~~~~~~~~~~~~~~~~
|  E Q.         E  E H                   E   E  H                Q.    +E
|-----------|-----------------|-------------------------------|-------------||
|-----------|-----------------|-------------------------------|-------------||
|-----------|-----------------|-------------------------------|-------------||
|-----------|--------8--------|----------------10-------------|-------------||
|----7------|------8----------|-------------10----------------|-10----(10)\-||
|-/5--------|---6-------------|----------8--------------------|-------------||
|
|                                                                ~~~
|  E E  E E     E  E E E E  E            E   E  E E   E    E     Q.    +E
|-----------|-----------------|-------------------------------|-------------||
|-----------|-----------------|-------------------------------|-15----(15)\-||
|-------5-7-|----------7-9-10-|-------------------9--10---12--|-12----(12)\-||
|-----------|--------8--------|----------------10-------------|-------------||
|----7------|------8----------|-------------10----------------|-------------||
|--5--------|---6-------------|----------8--------------------|-------------||


         N.C.
 2/2
  Gtr I
                                           ~~~
   a      +H            +Q     +E   E      H.            E    E
|-15b17==(15)----------(15)r==(15)------|-----------------------|
|----------------------------------17---|-17------------15---17-|
|---------------------------------------|-----------------------|
|---------------------------------------|-----------------------|
|---------------------------------------|-----------------------|
|---------------------------------------|-----------------------|
|
| Gtr II
|                                          ~~~
|  a      +H            +Q     +E   E      H.            E    E
|---------------------------------------|-----------------------|
|-15b17==(15)----------(15)r==(15)-14---|-14-----------------14-|
|---------------------------------------|---------------15------|
|---------------------------------------|-----------------------|
|---------------------------------------|-----------------------|
|---------------------------------------|-----------------------|
|
| Gtrs III, IV
|                    PM         PM              PM    PM-----|
|          E   +E  E E   E  E   E   E     +E  E E E E E  S S  E
|---------------------------------------|-----------------------|
|---------------------------------------|-----------------------|
|----------6b7r(6)------------------6b7r|=(6)-------------------|
|------------------7-----5h=7-----------|-----7---5h7-----------|
|--------------------0----------0-------|-------0-----0--4-5--7-|
|---------------------------------------|-----------------------|


   ~~~~~                       ~~~
   H.               +E    E    H.            E      E
|---------------------------|--------------------------|
|-14---------------(14)\-10-|-10------------11---------|
|---------------------------|----------------------12--|
|---------------------------|--------------------------|
|---------------------------|--------------------------|
|---------------------------|--------------------------|
|
|  ~~~~~                       ~~~
|  H.               +E    E    H.            E      E
|---------------------------|--------------------------|
|---------------------------|--------------------------|
|-14---------------(14)\--9-|--9------------10---------|
|---------------------------|----------------------12--|
|---------------------------|--------------------------|
|---------------------------|--------------------------|
|
|            PM      PM   ~~~~~~~~
|  E   +E  E E E E   E    E   +E  E E E E E  T T S  E
|---------------------------|--------------------------|
|---------------------------|--------------------------|
|--6b7r(6)------------------|--------------------------|
|----------7---5h7-------/7-|-(7)---------3--2h3p2-----|
|------------0-------0------|-----0-1-4s5-----------5--|
|---------------------------|--------------------------|


   ~~~~~                            ~~~
   Q.         E  +E  S  S  Q        Q.       E   Q    Q
|--------------------------------|-------------------------|
|-14---------11-(11)14p11s10-----|-------------------------|
|--------------------------------|-12------\10--10---12----|
|--------------------------------|-------------------------|
|--------------------------------|-------------------------|
|--------------------------------|-------------------------|
|
|  ~~~~~                            ~~~
|  Q.         E  +E  S  S  Q        Q.       E   Q    Q
|--------------------------------|-------------------------|
|-10-----------------------------|-------------------------|
|------------12-(12)14p12s10-----|--9-------\7---7----9----|
|--------------------------------|-------------------------|
|--------------------------------|-------------------------|
|--------------------------------|-------------------------|
|
|             PM           PM
|  E   +E  E  E   E  E     E E     +E  E E   E   E E  E  E
|--------------------------------|-------------------------|
|--------------------------------|-------------------11p10-|
|--6b7r(6)-------------------6b7r|=(6)---6h==7-/12s9-\3p=2-|
|----------7------5h=7-----------|-----7-------------------|
|-------------0------------0-----|-------------------------|
|--------------------------------|-------------------------|


   ~~~~~~~~~~~~~~~~~~~~      ~~~
   H.              +E   E    W
|-------------------------|--------------------------------------------||
|-------------------------|--------------------------------------------||
|-\9---------------(9)-\6-|--6-----------------------------------------||
|-------------------------|--------------------------------------------||
|-------------------------|--------------------------------------------||
|-------------------------|--------------------------------------------||
|
|  ~~~~~~~~~~~~~~~~~~~~      ~~~
|  H.              +E   E    W
|-------------------------|--------------------------------------------||
|-------------------------|--------------------------------------------||
|-\6---------------(6)-\2-|--2-----------------------------------------||
|-------------------------|--------------------------------------------||
|-------------------------|--------------------------------------------||
|-------------------------|--------------------------------------------||
|
|            PM     PM  ~~~~~~~~
|                                |----6----| |----6----| |----6----|
|  E   +E  E E E E  E   E   +Q   S S S S S S S S S S S S S S S S S S
|-------------------------|--------------------------------------------||
|-------------------------|--------------------------------------------||
|--6b7r(6)----------------|--------------------------------------------||
|----------7---5h7-----/7-|-(7)--------3-5-6-5-3-----------------------||
|------------0------0-----|------4-5-7-----------7-5-4-0---------------||
|-------------------------|------------------------------6-6-5-5-4-4---||


  N.C.
  Gtrs III, IV
                                                ~
  E E  E E   E   E    q         E  E E E E E  E E
|----------------------------|--------------------|
|----------------------------|--------------------|
|----------------------------|--------------------|
|----------------------------|--------------------|
|--------5---4---------------|-----------5-4-/8-7-|
|-3-5--6---------5--------|--3-5-6----------|
|
| Gtr V
| Q    E E   E   E    E   E    +W
|--------0------(0)------(0)-|-(0)----------------|
|------3----(3)------(3)-----|--------------------|
|----------------------------|--------------------|
|----------------------------|--------------------|
|----------------------------|--------------------|
|----------------------------|--------------------|
|
| Gtr VI
| Q    E E   E   E    E   E    +W
|--------0------(0)------(0)-|-(0)----------------|
|-----15---(15)-----(15)-----|--------------------|
|----------------------------|--------------------|
|----------------------------|--------------------|
|----------------------------|--------------------|
|----------------------------|--------------------|


                            A5    Bb5 G5   F5G5   E5
  +E   E  E E   E   E    E   E     E  E  E E   E   E    E   E
|-------------------------------|------------------------------|
|-------------------------------|------------------------------|
|-------------------------------|------------------------------|
|-------------------------------|------------------------------|
|-(7)\------5---4------------7--|--8--5--x-3---5---2----x---x--|
|------3--6---------5----x---5--|--6--3--x-1---3---0----x---x--|
|
|  Q      E E   E   E    E   E    +Q     E E   E   E    E   E
|-----------0------(0)------(0)-|-(0)------0------(0)------(0)-|
|---------3----(3)------(3)-----|--------6----(6)------(6)-----|
|-------------------------------|------------------------------|
|-------------------------------|------------------------------|
|-------------------------------|------------------------------|
|-------------------------------|------------------------------|
|
|  Q      E E   E   E    E   E    +Q     E E   E   E    E   E
|-----------0------(0)------(0)-|-(0)------0------(0)------(0)-|
|--------15---(15)-----(15)-----|-------18---(18)-----(18)-----|
|-------------------------------|------------------------------|
|-------------------------------|------------------------------|
|-------------------------------|------------------------------|
|-------------------------------|------------------------------|


  N.C.
                                                ~
  E E  E E   E   E    E   E     E  E E E E E  E E
|----------------------------|--------------------|
|----------------------------|--------------------|
|----------------------------|--------------------|
|----------------------------|--------------------|
|--------5---4---------------|-----------5-4-/8-7-|
|-3-5--6---------5-----|--3-5-6----------|
|
| Q    E E   E   E    E   E    +W
|--------0------(0)------(0)-|-(0)----------------|
|------3----(3)------(3)-----|--------------------|
|----------------------------|--------------------|
|----------------------------|--------------------|
|----------------------------|--------------------|
|----------------------------|--------------------|
|
| Q    E E   E   E    E   E    +W
|--------0------(0)------(0)-|-(0)----------------|
|-----15---(15)-----(15)-----|--------------------|
|----------------------------|--------------------|
|----------------------------|--------------------|
|----------------------------|--------------------|
|----------------------------|--------------------|


                                                      A5   Bb5
                                         PM        PM
  +E   E  E E   E   E    E   E     E  E  E E   E   E    E   E
|-------------------------------|------------------------------||
|-------------------------------|------------------------------||
|-------------------------------|------------------------------||
|-------------------------------|-/8--7------------------------||
|-(7)\----------5---4-----------|----------8---7--------7---8--||
|------3--5-6------------6---5--|--------0---------0----5---6--||
|
|  Q      E E   E   E    E   E    +Q     E E   E   E    E   E
|-----------0------(0)------(0)-|-(0)------0------(0)------(0)-||
|---------3----(3)------(3)-----|--------8----(8)------(8)-----||
|-------------------------------|------------------------------||
|-------------------------------|------------------------------||
|-------------------------------|------------------------------||
|-------------------------------|------------------------------||
|
|  Q      E E   E   E    E   E    +Q     E E   E   E    E   E
|-----------0------(0)------(0)-|-(0)------0------(0)------(0)-||
|--------15---(15)-----(15)-----|-------20---(20)-----(20)-----||
|-------------------------------|------------------------------||
|-------------------------------|------------------------------||
|-------------------------------|------------------------------||
|-------------------------------|------------------------------||


  N.C.
  Gtr I
                                                        <
     \2.5/                                  \0.5____|
  E  E      +E       +E   +E   +E  Q     E  E      +E   E  +H
|---22-----(22)b24==(22)-(22)r(22)-----|---18-----(18)--------------|
|--------------------------------------|---------------14-(14)------|
|--------------------------------------|----------------------------|
|--------------------------------------|----------------------------|
|--------------------------------------|----------------------------|
|--------------------------------------|----------------------------|
|
| Gtr II
| E  Q                E    E    E  E E   E  Q           E   E E E E
|--------------------------------------|----------------------------|
|--------------------------------------|----------------------------|
|----2---------------------2h===3----0h|=2--2---------------2h3---0h|
|--------------------------------------|----------------------------|
|-0-------------------0------------0---|----------------0-------0---|
|--------------------------------------|----------------------------|


   E  Q.        +Q    +Q       +Q      a   +Q   H
|---------------------------|--------------------------|
|-14-14b15=====(14)--(14)---|-(14)---(14)r(14)---------|
|---------------------------|--------------------------|
|---------------------------|--------------------------|
|---------------------------|--------------------------|
|---------------------------|--------------------------|
|
|  E  Q      E   E E   E  E     E  E        E E E E Q
|---------------------------|--------------------------|
|---------------------------|--------------------------|
|--2--2----------2h3------0h|===2----------------------|
|---------------------------|---------------2h3---0h2--|
|------------0---------0----|------0------------0------|
|---------------------------|--------------------------|


           \1.5/   \1.5/   \1.5/                                              /1\   /1\
  Q    S  +S      +S      +S      H              +Q     +E   +E  E E    +E    S    +S
|-----12-(12)----(12)----(12)----12b13========|=(12)---(12)r(12)------------------------|
|---------------------------------------------|-----------------------------------------|
|---------------------------------------------|-----------------------------------------|
|---------------------------------------------|--------------------0b5==(0)r-12---(12)--|
|---------------------------------------------|-----------------------------------------|
|---------------------------------------------|-----------------------------------------|
|
| E Q              E              E     E E E     E  Q        E  E E     E    E
|---------------------------------------------|-----------------------------------------|
|---------------------------------------------|-----------------------------------------|
|---2-----------------------------2h====3---0h|===2--2-----------2h3----------0h========|
|---------------------------------------------|-----------------------------------------|
|-0----------------0----------------------0---|---------------0----------0--------------|
|---------------------------------------------|-----------------------------------------|


    /1\   /1\   /1\   /1\   /1\   /1\                         \6
   +S    +S    +S    +S    +S    +S    E  +E       +E   +E   +E   W
|---------------------------------------------------------------|----------------|
|---------------------------------------------------------------|----------------|
|---------------------------------------------------------------|----------------|
|-(12)--(12)--(12)--(12)--(12)--(12)--13-(13)b14==(13)r(13)-(13)|----------------|
|---------------------------------------------------------------|----------------|
|---------------------------------------------------------------|----------------|
|
|   E           Q                      E   E        E    E    E   E E E E E E Q
|---------------------------------------------------------------|----------------|
|---------------------------------------------------------------|----------------|
|---2-----------2--------------------------2h=======3---------0h|=2--------------|
|---------------------------------------------------------------|-----2h3---0h2--|
|--------------------------------------0-----------------0------|---0-----0------|
|---------------------------------------------------------------|----------------|


  Gtrs III, IV
         ~~~          ~~~
   S  S  E.  S  S  S  Q    S  S  S  S
|-------------------------------------|
|-15p11-14----------------------------|
|-----------15p12-15-14---15p12-14p12-|
|-------------------------------------|
|-------------------------------------|
|-------------------------------------|
|
|  E     Q      E     E E  E     E
|-------------------------------------|
|-------------------------------------|
|--------2------------2h3--------0h===|
|-------------------------------------|
|--0------------0----------0----------|
|-------------------------------------|


         ~~                                           ~~        ~~~
   S  S  Q   S  S  S  T  T  S  S  S  S  S  S    S  S  Q   S  S  Q    S  S  S  S
|-----------17p13-15-17p15p13----13----------|----18-17-------------------------|
|-----------------------------17----15-17-14-|-15--------18p15-17---17p14-15p14-|
|----12--------------------------------------|----------------------------------|
|-15----14-----------------------------------|----------------------------------|
|--------------------------------------------|----------------------------------|
|--------------------------------------------|----------------------------------|
|
|  E     Q   E     E        E     E     E       E     Q   E     E E  E     E
|--------------------------------------------|----------------------------------|
|--------------------------------------------|----------------------------------|
|--2-----2---------2h=======3-----------0h===|==2-----2---------2h3--------0----|
|--------------------------------------------|----------------------------------|
|------------0--------------------0----------|------------0----------0----------|
|--------------------------------------------|----------------------------------|


         ~~                     ~~          ~~~          ~~~
   S  S  Q    S  S  S  S  S  S  Q     S  S  E.  S  S  S  Q    S  S  S  S
|----------------------------------|-------------------------18p15-17p15-|
|----14----------------------------|-15p11-14----------------------------|
|-15----14---15p12-14p12----12-----|-----------15p12-15-14---------------|
|------------------------15----14--|-------------------------------------|
|----------------------------------|-------------------------------------|
|----------------------------------|-------------------------------------|
|
|  E     E E  E     E     E     Q     E     Q      E     E E  E     E
|----------------------------------|-------------------------------------|
|----------------------------------|-------------------------------------|
|--2-------------------------------|--------2------------2h3--------0h===|
|----------2h=3-----------0h====2--|-------------------------------------|
|--------0----------0--------------|--0------------0----------0----------|
|----------------------------------|-------------------------------------|


         ~~
   S  S  Q   S  S  S  T  T  S  S  S  S  S  S
|----15-----22p18-21-22p21p18----18----------|
|-18----17--------------------22----20-22-18-|
|--------------------------------------------|
|--------------------------------------------|
|--------------------------------------------|
|--------------------------------------------|
|
|  E     Q   E     E        E     E     E
|--------------------------------------------|
|--------------------------------------------|
|--2-----2---------2h=======3-----------0----|
|--------------------------------------------|
|------------0--------------------0----------|
|--------------------------------------------|


         ~~        ~~~                      ~~                  ~~
   S  S  Q   S  S  Q    S  S  S  S    S  S  Q    S S  S S  S S  Q
|----22-21--18p15-17---15p12-13p12-|----12-------------------------|
|-20-------------------------------|-15----14----------------------|
|----------------------------------|------------12p9-10p9----9-----|
|----------------------------------|----------------------12---11--|
|----------------------------------|-------------------------------|
|----------------------------------|-------------------------------|
|
|  E     Q   E     E E  E     E       E     E E  E    E    E    Q
|----------------------------------|-------------------------------|
|----------------------------------|-------------------------------|
|--2-----2---------2h3--------0h===|==2----------------------------|
|----------------------------------|----------2h=3---------0h===2--|
|------------0----------0----------|--------0---------0------------|
|----------------------------------|-------------------------------|


         ~~~          ~~~
   S  S  E.  S  S  S  Q    S  S  S  S
|--------------------------------------|
|-15p11-14-----------------------------|
|-----------15-14-15-12---15p12-14p12--|
|--------------------------------------|
|--------------------------------------|
|--------------------------------------|
|
|  E     Q      E     E E  E     E
|--------------------------------------|
|--------------------------------------|
|--------2------------2h3--------0-----|
|--------------------------------------|
|--------------------------------------|
|--3------------3----------3-----------|


                     ~~~~~~~
                                              |--3--|
   S  S  S  S  S  S  E  +E  S  S  T  T  T  T  S  S  S
|--------------------------17-13-15h17p15p13----------|
|--------------------------------------------17p15p14-|
|----12-------12-14-12-(12)---------------------------|
|-15----14-15-----------------------------------------|
|-----------------------------------------------------|
|-----------------------------------------------------|
|
|  E     Q           E   E  E     E           E
|-----------------------------------------------------|
|-----------------------------------------------------|
|--2-----2---------------2h=3-----------------0h======|
|-----------------------------------------------------|
|-----------------------------------------------------|
|--------------------3------------3-------------------|


                     ~~                                                                  ~~~
   |------6-------|
   S  S  S  S  S  S  Q    S  S  S  S  S  S  S  S    S  S  S  S  S  S  S  S  S  S  S  S   Q
|------------------------------------------------|-------------------------------------------||
|------------------------18-15-17-18-15-14-------|-------------------------------18-15-/22---||
|-15p14p12----------14---------------------17-16-|-15-14-------------18-17-16-15-------------||
|----------15p14p12------------------------------|-------17-16-15-14-------------------------||
|------------------------------------------------|-------------------------------------------||
|------------------------------------------------|-------------------------------------------||
|
|  E        Q          E  E     E     E     E       E     E     E     E     E     E      Q
|------------------------------------------------|-------------------------------------------||
|------------------------------------------------|-------------------------------------------||
|--2--------2-------------2h====3-----------0h===|==2----------------------------------------||
|------------------------------------------------|--------------2h====3-----------0h=====2---||
|------------------------------------------------|-------------------------------------------||
|----------------------1--------------1----------|--------0-----------------0----------------||


  N.C.
  Gtrs III, IV
  E E  E E   E   E    Q         E  E E E E E  E E
|----------------------------|--------------------|
|----------------------------|--------------------|
|----------------------------|--------------------|
|----------------------------|--------------------|
|--------5---4---------------|-----------5-4-/8-7-|
|-3-5--6---------5--------|--3-5-6----------|
|
| Gtr V
| Q    E E   E   E    E   E    +W
|--------0------(0)------(0)-|-(0)----------------|
|------3----(3)------(3)-----|--------------------|
|----------------------------|--------------------|
|----------------------------|--------------------|
|----------------------------|--------------------|
|----------------------------|--------------------|
|
| Gtr VI
| Q    E E   E   E    E   E    +W
|--------0------(0)------(0)-|-(0)----------------|
|-----15---(15)-----(15)-----|--------------------|
|----------------------------|--------------------|
|----------------------------|--------------------|
|----------------------------|--------------------|
|----------------------------|--------------------|


                                                   D.S. al Coda
                            A5      Bb5 G5   F5  G5   E5
  +E   E  E E   E   E    E   S  S    E  E  E S S   E   E    E   E
|---------------------------------|----------------------------------||
|---------------------------------|----------------------------------||
|---------------------------------|----------------------------------||
|---------------------------------|----------------------------------||
|-(7)\------5---4------------7--7-|--8--5--x-3-3---5---2----x---2----||
|------3--6---------5----x---5--5-|--6--3--x-1-1---3---0----x---0----||
|
|  Q      E E   E   E    E   E      +Q     E E     E   E    E   E
|-----------0------(0)------(0)---|-(0)------0--------(0)------(0)---||
|---------3----(3)------(3)-------|--------6------(6)------(6)-------||
|---------------------------------|----------------------------------||
|---------------------------------|----------------------------------||
|---------------------------------|----------------------------------||
|---------------------------------|----------------------------------||
|
|  Q      E E   E   E    E   E      +Q     E E     E   E    E   E
|-----------0------(0)------(0)---|-(0)------0--------(0)------(0)---||
|--------15---(15)-----(15)-------|-------18-----(18)-----(18)-------||
|---------------------------------|----------------------------------||
|---------------------------------|----------------------------------||
|---------------------------------|----------------------------------||
|---------------------------------|----------------------------------||


  &
  G5                 A
 4/4                2/2
  Gtr I              Gtr VI
   ~~~
   H.       +Q       H    E E E E   +Q.   E +H
|-22-------(22)\--||--------------|----------------|
|-----------------||------2-3-2---|----------------|
|-----------------||------------4-|-(4)---2-(2)----|
|-----------------||--------------|----------------|
|-----------------||-0------------|----------------|
|-----------------||--------------|----------------|
|
| Gtr III
|  H.       +Q       W               W
|-----------------||--------------|----------------|
|-----------------||--------------|----------------|
|-----------------||--------------|----------------|
|-----------------||--------------|----------------|
|-10-------(10)\--||--------------|----------------|
|-----------------||--------------|----------------|
|
| Gtr IV
|  ~~~
|  H.       +Q       W               W
|-----------------||--------------|----------------|
|-15-------(15)\--||--------------|----------------|
|-12-------(12)\--||--------------|----------------|
|-----------------||--------------|----------------|
|-----------------||--------------|----------------|
|-----------------||--------------|----------------|


  Em                                  A
   H.      E E   +E  E E E +E  q  E   Q  E E E E E E   +Q.   E +H
|--------------|--------------------|----------------|----------------|
|-^0-----------|---------3-(3)s5--2-|--------2-3-2-3-|-(3)---2-(2)----|
|-^0---------0-|-(0)----------------|------2-------4-|-(4)---2-(2)----|
|-^2-----------|-------2------------|----2-----------|----------------|
|-^2-----------|-----2--------------|-0--------------|----------------|
|-^0-------0---|--------------------|----------------|----------------|


  Fb5                   Dadd4              A
   H    +E  E E E   +E   E E E +E  E Q     Q  E E E E E E   +Q   a E E +H
|-----------------|----------------------|----------------|-------------------|
|-^0----(0)-1p0---|----------------------|--------2-3-2---|-------------------|
|-^2----(2)-----2-|-(2)------0-(0)-------|------2-------4-|-(4)h=5p4-2-(2)----|
|-^3----(3)-------|--------4-------4-----|----2-----------|-------------------|
|-^3----(3)-------|-----/5-----------5\--|-0--------------|-------------------|
|-^1----(1)-------|----------------------|----------------|-------------------|


  Em                         D/F#  G6sus2
   H    +E   Q    E     +E   E E E E E E E
|-----------<5>------|-------------------0-|
|-^0----(0)------<5>-|-(<5>)-----3---------|
|-^0----(0)----------|-----------------2---|
|-^2----(2)----------|---------0-----0-----|
|-^2----(2)----------|---------------------|
|-^0----(0)----------|-------2-----3-------|


  A
  Q  E E E E E a E   +E  E E E +E  Q.
|------------------|--------------------|
|--------2-3-2-2s5-|-(5)-3-2-3-(3)-2----|
|------2-----------|---------4-(4)-2----|
|----2-------------|--------------------|
|-0----------------|--------------------|
|------------------|--------------------|


  Fb5
   H    +E  E E E   +H     +E  E   +E  E
|-----------------|----------------------|
|-^0----(0)-1p0---|----------------------|
|-^2----(2)-----2-|-(2)----(2)-----------|
|-^3----(3)-------|------------4b5r(4)p2-|
|-^3----(3)-------|----------------------|
|-^1----(1)-------|----------------------|


  (A)
  H    +E   Q    E     +E    Q.    +H
|-------------------|----------------------||
|-------------------|----------------------||
|-------------------|----------------------||
|-------------------|-------<5>---(<5>)----||
|-0----(0)-<5>--<4>-|-(<4>)----------------||
|-------------------|----------------------||


  N.C.
  Gtr V
  E Q  E E E E E   E Q  E E E E E   E Q  E E E E E   E E E E E E Q
|----------------|----------------|----------------|----------------|
|----------------|----------------|----------------|----------------|
|---2----2h3---0h|=2-2----2h3---0h|=2-2----2h3---0h|=2--------------|
|----------------|----------------|----------------|-----2h3---0h2--|
|-0----0-----0---|------0-----0---|------0-----0---|---0-----0------|
|----------------|----------------|----------------|----------------|


    Gtrs V, VI
    E Q  E E E E E   E Q  E E E E E   E Q  E E E E E   E E E E E E Q    3x
||-----------------|----------------|----------------|------------------||
||o----------------|----------------|----------------|-----------------o||
||----2----2h3---0h|=2-2----2h3---0h|=2-2----2h3---0h|=2----------------||
||-----------------|----------------|----------------|-----2h3---0h2----||
||o-0----0-----0---|------0-----0---|------0-----0---|---0-----0-------o||
||-----------------|----------------|----------------|------------------||


  E  Q  E  E  E E  E    E  Q  E  E  E E  E
|--------------------|---------------------|
|--------------------|---------------------|
|----2-----2h=3----0h|==2--2-----2h=3----0h|
|--------------------|---------------------|
|-0-----0-------0----|--------0-------0----|
|--------------------|---------------------|
|
| Gtr II
| E  Q  E  E  E E  E    E  Q  E  E  E E  E
|--------------------|---------------------|
|--------------------|---------------------|
|---14----14h15---12h|=14-14----14h15---12h|
|--------------------|---------------------|
|-0-----0-------0----|--------0-------0----|
|--------------------|---------------------|


   E  Q  E  E  E E  E    E E  E  E E  E  Q
|---------------------|---------------------|
|---------------------|---------------------|
|--2--2-----2h=3----0h|==2------------------|
|---------------------|-------2h=3----0h=2--|
|--------0-------0----|----0-------0--------|
|---------------------|---------------------|
|
|  E  Q  E  E  E E  E    E E  E  E E  E  Q
|---------------------|---------------------|
|---------------------|---------------------|
|-14-14----14h15---12h|=14------------------|
|---------------------|------14h15---12h14--|
|--------0-------0----|----0-------0--------|
|---------------------|---------------------|


  E  Q  E  E  E E  E    E  Q  E  E  E E  E
|--------------------|---------------------|
|--------------------|---------------------|
|----2-----2h=3----0h|==2--2-----2h=3----0h|
|--------------------|---------------------|
|-0-----0-------0----|--------0-------0----|
|--------------------|---------------------|
|
| E  Q  E  E  E E  E    E  Q  E  E  E E  E
|--------------------|---------------------|
|--------------------|---------------------|
|---14----14h15---12h|=14-14----14h15---12h|
|--------------------|---------------------|
|-0-----0-------0----|--------0-------0----|
|--------------------|---------------------|


                             E5F5  D5E5
                             Gtrs III, IV
   E  Q  E  E  E E  E    E E E E E E Q
|---------------------|------------------||
|---------------------|------------------||
|--2--2-----2h=3----0h|==2---------------||
|---------------------|------2-3-x-0-2\--||
|--------0-------0----|----0-2-3-x-0-2\--||
|---------------------|------------------||
|
|  E  Q  E  E  E E  E    E E Q   H
|---------------------|------------------||
|---------------------|------------------||
|-14-14----14h15---12h|=14---------------||
|---------------------|------------------||
|--------0-------0----|----0-------------||
|---------------------|------------------||


  G5     G5/A    G5/Bb Bb           Gm
  Gtrs III, IV
  ~~~~~~~~~~~~~~~~~~~~~~~~~~~~~~~~~~~~~~~~~~~~~~~
  Q.     E +Q    Q     +H            H
|--------------------|--------------------------|
|--------------------|--------------------------|
|--------------------|--------------------------|
|--------------------|--------------------------|
|--------------------|--------------------------|
|-3------5-(5)---6---|-(6)-----------3----------|
|
| Gtr II
| e  e e e  e  e e e    e   e  e  e  e  e  e  e
|--------------------|--------------------------|
|-8--8-8-8--8--8-8-8-|-11--11-11-11-11-11-11-11-|
|-7--7-7-7--7--7-7-7-|--7---7--7--7--7--7--7--7-|
|--------------------|--------------------------|
|--------------------|--------------------------|
|--------------------|--------------------------|


  D5        A/C#
 ~~~~~~~~~~~~~~~~~~~~~~~~~~~~~~~~~~~~~~~~~~~~~~~~~
   Q.        E +H             +E   +Q.        +Q.         E
|---------------------------|--------------------------------|
|---------------------------|--------------------------------|
|---------------------------|--------------------------------|
|---------------------------|--------------------------------|
|--5---------4-(4)----------|-(4)-([4])-------(4)------------|
|---------------------------|---------------------------/18\-|
|
|  e   e  e  e  e   e  e  e    e    e    e  e  e   e  e   e
|---------------------------|--------------------------------|
|-10--10-10-10-10--10-10-10-|-10---10---10-10-10--10-10--10--|
|--7---7--7--6--6---6--6--6-|--6----6----6--6--6---6--6---6--|
|---------------------------|--------------------------------|
|---------------------------|--------------------------------|
|---------------------------|--------------------------------|


  G5     G5/A    G5/Bb Bb           Gm
  ~~~~~~~~~~~~~~~~~~~~~~~~~~~~~~~~~~~~~~~~~~~~~~~
  Q.     E +Q    Q     +H            H
|--------------------|--------------------------|
|--------------------|--------------------------|
|--------------------|--------------------------|
|--------------------|--------------------------|
|--------------------|--------------------------|
|-3------5-(5)---6---|-(6)-----------3----------|
|
| e  e e e  e  e e e    e   e  e  e  e  e  e  e
|--------------------|--------------------------|
|-8--8-8-8--8--8-8-8-|-11--11-11-11-11-11-11-11-|
|-7--7-7-7--7--7-7-7-|--7---7--7--7--7--7--7--7-|
|--------------------|--------------------------|
|--------------------|--------------------------|
|--------------------|--------------------------|


  F         Esus4
 ~~~~~~~~~~~~~~~~~~       PM--------------------------|
   Q.        E +Q.        S S    E  S S  E  S S  E  S S  E  E
|-----------------------------|-------------------------------|
|-----------------------------|-------------------------------|
|-----------------------------|-------------------------------|
|-----------------------------|-------------------------------|
|-/8---------7-(7)--------8-8-|--8--7-7--7--5-5--5--4-4--4--0-|
|-----------------------------|-------------------------------|
|
|  e   e  e  e  e   e  e  e      e  e    e  e    e  e    e  e
|-----------------------------|-------------------------------|
|-10--10-10-10-10--10-10-10---|-10-10---10-10---10-10---10-10-|
|-10--10-10--9--9---9--9--9---|--9--9----9--9----9--9----9--9-|
|-----------------------------|-------------------------------|
|-----------------------------|-------------------------------|
|-----------------------------|-------------------------------|


  G5     G5/A    G5/Bb Bb           Gm
  ~~~~~~~~~~~~~~~~~~~~~~~~~~~~~~~~~~~~~~~~~~~~~~~
  Q.     E +Q    Q     +H            H
|--------------------|--------------------------|
|--------------------|--------------------------|
|--------------------|--------------------------|
|--------------------|--------------------------|
|--------------------|--------------------------|
|-3------5-(5)---6---|-(6)-----------3----------|
|
| e  e e e  e  e e e    e   e  e  e  e  e  e  e
|--------------------|--------------------------|
|-8--8-8-8--8--8-8-8-|-11--11-11-11-11-11-11-11-|
|-7--7-7-7--7--7-7-7-|--7---7--7--7--7--7--7--7-|
|--------------------|--------------------------|
|--------------------|--------------------------|
|--------------------|--------------------------|


  D5        A/C#
 ~~~~~~~~~~~~~~~~~~~~~~~~~~~~~~~~~
   Q.        E +H             +Q     +E    E  H
|---------------------------|-----------------------------|
|---------------------------|-----------------------------|
|---------------------------|-----------------------------|
|---------------------------|-----------------------------|
|--5---------4-(4)----------|-(4)----(4)/-----------------|
|---------------------------|----------------21\----------|
|
|  e   e  e  e  e   e  e  e    e   e  e    e  e   e  e  e
|---------------------------|-----------------------------|
|-10--10-10-10-10--10-10-10-|-10--10-10---10-10--10-10-10-|
|--7---7--7--6--6---6--6--6-|--6---6--6----6--6---6--6--6-|
|---------------------------|-----------------------------|
|---------------------------|-----------------------------|
|---------------------------|-----------------------------|


  G5     G5/A    G5/Bb Bb             F     Em
  ~~~~~~~~~~~~~~~~~~~~~~~~~
  Q.     E +Q    Q     +Q.       +E    Q    Q
|--------------------|--------------------------||
|--------------------|--------------------------||
|--------------------|--------------------------||
|--------------------|--------------------------||
|--------------------|--------------------------||
|-3------5-(5)---6---|-(6)-------(6)\--1----0---||
|
| e  e e e  e  e e e    e   e  e  e    e  e e e
|--------------------|--------------------------||
|-8--8-8-8--8--8-8-8-|-11--11-11-11---10-10-8-8-||
|-7--7-7-7--7--7-7-7-|--7---7--7--7---10-10-9-9-||
|--------------------|--------------------------||
|--------------------|--------------------------||
|--------------------|--------------------------||
|
| W                     W
|--------------------|--------------------------||
|--------------------|--------------------------||
|--------------------|--------------------------||
|--------------------|--------------------------||
|--------------------|--------------------------||
|--------------------|--------------------------||


  N.C.
 8/8                      7/8
  Gtr III
  Q    S S Q   e S S S S   Q    S S S S S  S S S  S S
|--------------8---------|----------8p6-8-10-8p6--------|
|-----10p8-------6p5-----|-----10p8--------------10p8---|
|--------------------7p5-|------------------------------|
|------------------------|------------------------------|
|------------------------|------------------------------|
|------------------------|------------------------------|
|
| Gtr IV
| Q    S S Q   e S S S S   Q    S S S S S  S S S  S S
|------------------------|----------5p3-5--6-5p3--------|
|------6p5-----8---------|------6p5---------------6p5---|
|----------------7p5-----|------------------------------|
|--------------------7p5-|------------------------------|
|------------------------|------------------------------|
|------------------------|------------------------------|
|
| Gtr II
| PM---------------------------------------------|
| E E  E   E E E E   E     E E  E   E   E    E    E
|------------------------|------------------------------|
|------------------------|------------------------------|
|------------------------|------------------------------|
|---7--5-----7-5-----5---|---7--5-------7---------8-----|
|-5--------8-------------|-5--------8--------7----------|
|----------------8-------|------------------------------|


 8/8
                   |--3--|
  Q    S S Q    e  S  S  S  E
|-----10p8-----17-20p18p17----|
|--------------------------20-|
|-----------------------------|
|-----------------------------|
|-----------------------------|
|-----------------------------|
|
|                  |--3--|
| Q    S S Q    e  S  S  S  E
|------6p5-----13-17p15p13----|
|--------------------------17-|
|-----------------------------|
|-----------------------------|
|-----------------------------|
|-----------------------------|
|
| PM---------------------------
| E E  E   E E  E  E        E
|-----------------------------|
|-----------------------------|
|-----------------------------|
|---7--5-----7--5-----------5-|
|-5--------8------------------|
|------------------8----------|


 9/8
   |----------9:6-----------|  |----------9:6-----------|  |----------9:6-----------|
   S  S  S  S  S  S  S  S   S  S  S  S  S  S  S  S  S   S  S  S  S  S  S  S  S  S   S
|----------15h17h18p17p15--------------12h13h15p13p12--------------13h15h17p15p13-------|
|-15h17h18----------------h18-11h13h15----------------h15-13h15h17----------------h17---|
|---------------------------------------------------------------------------------------|
|---------------------------------------------------------------------------------------|
|---------------------------------------------------------------------------------------|
|---------------------------------------------------------------------------------------|
|
|  |----------9:6-----------|  |----------9:6-----------|  |----------9:6-----------|
|  S  S  S  S  S  S  S  S   S  S  S  S  S  S  S  S  S   S  S  S  S  S  S  S  S  S   S
|----------12h13h15p13p12---------------8h10h12p10p=8--------------10h12h13p12p10-------|
|-11h13h15----------------h15--8h10h11----------------h11-10h11h13----------------h13---|
|---------------------------------------------------------------------------------------|
|---------------------------------------------------------------------------------------|
|---------------------------------------------------------------------------------------|
|---------------------------------------------------------------------------------------|
|
|---------------------------------------------------------------------------|
|  E        E        E         E        E        E         E        E        E
|---------------------------------------------------------------------------------------|
|---------------------------------------------------------------------------------------|
|---------------------------------------------------------------------------------------|
|---------------------------------------------------------------------------------------|
|-----------8--------5------------------5--------5------------------7--------5----------|
|--6---------------------------3---------------------------5----------------------------|


 7/8
  Q    S  S  S  S  S  S  S  S  S  S
|-----------20p18-20-22-20p18-------|
|-----22p20-------------------22-20-|
|-----------------------------------|
|-----------------------------------|
|-----------------------------------|
|-----------------------------------|
|
| Q    S  S  S  S  S  S  S  S  S  S
|-----------17p15-17-18-17p15-------|
|-----18p17-------------------18-17-|
|-----------------------------------|
|-----------------------------------|
|-----------------------------------|
|-----------------------------------|
|
| PM---------------------------------
| E E  E     E     S  S  E     E
|-----------------------------------|
|-----------------------------------|
|-----------------------------------|
|---7--5-----------7-----------5----|
|-5----------8--------8-------------|
|------------------------8----------|


 8/8
                    |--3--|
  Q    S  S Q    e  S  S  S  S  S   Q    S S Q   E S S S S
|-----17p15-----20-18p17p15-------|--------------8----------|
|---------------------------18-17-|-----10p8-------6p5------|
|---------------------------------|--------------------7p5--|
|---------------------------------|-------------------------|
|---------------------------------|-------------------------|
|---------------------------------|-------------------------|
|
|                   |--3--|
| Q    S  S Q    e  S  S  S  S  S   Q    S S Q   e S S S S
|---------------17-22p20p18-------|-------------------------|
|-----18p17-----------------22-20-|------6p5-----8----------|
|---------------------------------|----------------7p5------|
|---------------------------------|--------------------7p5--|
|---------------------------------|-------------------------|
|---------------------------------|-------------------------|
|
|------------------------------------------------------|
| E E  E    E E  E  E        E      E E  E   E E E E   E
|---------------------------------|-------------------------|
|---------------------------------|-------------------------|
|---------------------------------|-------------------------|
|---7--5------7-----8--------5----|---7--5-----7-5-----5----|
|-5---------8----7----------------|-5--------8--------------|
|---------------------------------|----------------8--------|


 6/8
   |-----6------|           |-------6-------|
   S  S S  S  S S  S S  E  +S   S  S  S  S  S
|-12p10p8--------------13-(13)p12p10----------|
|---------11p10p8--------------------13p11p10-|
|-----------------10-9------------------------|
|---------------------------------------------|
|---------------------------------------------|
|---------------------------------------------|
|
|  |-----6------|           |-------6-------|
|  S  S S  S  S S  S S  E  +S   S  S  S  S  S
|--8p=6p5--------------10-(10)p=8p=6----------|
|----------8p=6p5--------------------10p=8p=6-|
|------------------7-5------------------------|
|---------------------------------------------|
|---------------------------------------------|
|---------------------------------------------|
|
|  PM------------------------------------------
|  E       E       E    E   E         E
|---------------------------------------------|
|---------------------------------------------|
|---------------------------------------------|
|---------------------------------------------|
|----------8-------5--------5---------5-------|
|--6--------------------3---------------------|


 8/8                               7/8
                      ~~~~
  a     +E  +E  +E    Q.      Q       Q.       Q    Q
|---------------------------------|----------------10---|
|-----------------------------8---|-/10-------13--------|
|-7b9===(7)-(7)r(7)---9-----------|---------------------|
|---------------------------------|---------------------|
|---------------------------------|---------------------|
|---------------------------------|---------------------|
|
| a     +E  +E  +E    Q.      Q       Q.       Q    Q
|---------------------------------|---------------------|
|-8b10==(8)-(8)r(8)-/13------12---|--13------/17---18---|
|---------------------------------|---------------------|
|---------------------------------|---------------------|
|---------------------------------|---------------------|
|---------------------------------|---------------------|
|
|-----------------------------------------------------|
|        E   E   E    E  E E  E E     E  E E   E E  E E
|---------------------------------|---------------------|
|---------------------------------|---------------------|
|---------------------------------|---------------------|
|---------------------------------|---------------------|
|------------7---5-------7-5----5-|------7-5-----7----8-|
|--------5------------8-------3---|---5--------8----6---|


 8/8
                                 ~~
   Q.      a      +E   +E   +E   Q
|---------12b13==(12)-(12)r(12)-12---|
|-13---------------------------------|
|------------------------------------|
|------------------------------------|
|------------------------------------|
|------------------------------------|
|
|  ~~~                           ~~
|  Q.      a      +E   +E   +E   Q
|---------15b17==(15)-(15)r(15)-15---|
|-17---------------------------------|
|------------------------------------|
|------------------------------------|
|------------------------------------|
|------------------------------------|
|
|  PM---------------------------------
|  E  E E          E    E    E   E E
|------------------------------------|
|------------------------------------|
|------------------------------------|
|------------------------------------|
|-----7-5---------------7----5-----5-|
|--5---------------8-------------3---|


 9/8                                                        7/8
                                                                                    ~~~~~~~
                                                |--3--|
   S  S  S  S  S  S  S  S  S  T  T  T  T  S  E  S  S  S  E    a      +E   +E   +E   Q    Q
|----------------------13-15-13p12----------19-15----------|-19b20==(19)-(19)r(19)-------------|
|-15p13----------13-15-------------15-------------17-------|-----------------------------------|
|-------14-12-14----------------------16p14----------17p16-|-----------------------17---19-----|
|----------------------------------------------------------|-----------------------------------|
|----------------------------------------------------------|-----------------------------------|
|----------------------------------------------------------|-----------------------------------|
|
|                                               |--3--|
|  S  S  S  S  S  S  S  S  S  T  T  T  T  S  E  S  S  S  E    a      +E   +E   +E   Q    Q
|----------------------17-19-17p16----------22-19----------|-----------------------------------|
|-18p17----------17-18-------------18-------------20-------|-20b22==(20)-(20)r(20)-17---18-----|
|-------19-17-19----------------------19p17----------21p19-|-----------------------------------|
|----------------------------------------------------------|-----------------------------------|
|----------------------------------------------------------|-----------------------------------|
|----------------------------------------------------------|-----------------------------------|
|
|------------------------------------------------------------------------------------------|
|  E     E     E     E     E        E        E  E        E            E    E    E   E E  E E
|----------------------------------------------------------|-----------------------------------|
|----------------------------------------------------------|-----------------------------------|
|----------------------------------------------------------|-----------------------------------|
|----------------------------------------------------------|-----------------------------------|
|--------3-----5-----------3--------5-----------3--------5-|---------------7----5-----7----5---|
|--1-----------------0-----------------------3-------------|----------5-------------8----3-----|


 9/8                                8/8
                                      ~~
   E  a  S  S  E  E  E  E  E  E  E    W
|----------------20-------------18-|------------------|
|----------------------------------|-17---------------|
|-17h19p17p16-17----17-------15----|------------------|
|----------------------17-15-------|------------------|
|----------------------------------|------------------|
|----------------------------------|------------------|
|
|                                     ~~
|  E  a  S  S  E  E  E  E  E  E  E    W
|----------------15-------------13-|------------------|
|-17h18p17p15-17-------------------|------------------|
|----------------------------------|-14---------------|
|-------------------17-------15----|------------------|
|----------------------15-13-------|------------------|
|----------------------------------|------------------|
|
|  PM--------------------------------------------------
|  E     E     E  E  E  E  E  E  E    E E E E E E E E
|----------------------------------|------------------|
|----------------------------------|------------------|
|----------------------------------|------------------|
|----------------------------------|------------------|
|--------7-----5-----7--5-----8--5-|----7-5---7-5---5-|
|--5--------------8--------6-------|--5-----8-----3---|


 6/8
   |------6-------|
   S  S  S  S  S  S  E  T  T  T  T  T  T  T  T  T  T  S
|----------17-------------------20h24p20-----------------|
|-------18----18-------------20----------20--------------|
|----17----------17-------21----------------21-----------|
|-19----------------19-22----------------------22--------|
|-------------------------------------------------22p19--|
|--------------------------------------------------------|
|
|  |------6-------|
|  S  S  S  S  S  S  E  T  T  T  T  T  T  T  T  T  T  S
|----------13-------------------15h20p15-----------------|
|-------13----13-------------15----------15--------------|
|----14----------14-------17----------------17-----------|
|-15----------------15-17----------------------17--------|
|-------------------------------------------------19p15--|
|--------------------------------------------------------|
|
|----------------------------------------------|
|  E        E        E  E           E           E
|--------------------------------------------------------|
|--------------------------------------------------------|
|--------------------------------------------------------|
|--------------------------------------------------------|
|-----------3--------5--------------3-----------5--------|
|--1--------------------0--------------------------------|


  D5                   F5                C5
 8/8
  Gtr I
   Q.                   Q.                Q
   |                    |                 |
   /                    /                 /

   |--3--|
   S  S  S  S  S  S  S  S  S  S  S  S  S  S  S  S  S
|-17h22p17----------17-25p20----------20-24p20-------|
|----------18----18----------22----22----------20----|
|-------------19----------------22----------------21-|
|----------------------------------------------------|
|----------------------------------------------------|
|----------------------------------------------------|
|
|  |--3--|
|  S  S  S  S  S  S  S  S  S  S  S  S  S  S  S  S  S
|-13h17p13----------13-20p17----------17-20p15-------|
|----------15----15----------18----18----------17----|
|-------------14----------------17----------------17-|
|----------------------------------------------------|
|----------------------------------------------------|
|----------------------------------------------------|


  D5                   F5          Eb5
 7/8
   Q.                   Q           Q
   |                    |           |
   /                    /           /

   |--3--|
   S  S  S  S  S  S  S  S  S  S  S  S  S  S  S
|-17h22p17----------17-20p17-------18p15--------|
|----------18----18----------18----------17-----|
|-------------19----------------17----------18--|
|-----------------------------------------------|
|-----------------------------------------------|
|-----------------------------------------------|
|
|  |--3--|
|  S  S  S  S  S  S  S  S  S  S  S  S  S  S  S
|-13h17p13----------13-17p13-------15p12--------|
|----------15----15----------13----------14-----|
|-------------14----------------14----------15--|
|-----------------------------------------------|
|-----------------------------------------------|
|-----------------------------------------------|


  D5                F5                C5
 8/8
   Q.                Q.                Q
   |                 |                 |
   /                 /                 /

   S  S  S  S  S  S  S  S  S  S  S  S  S  S  S  S
|-17p13----------13-17p13----------13-15p12-------|
|-------15----15----------13----13----------13----|
|----------14----------------14----------------12-|
|-------------------------------------------------|
|-------------------------------------------------|
|-------------------------------------------------|
|
|  S  S  S  S  S  S  S  S  S  S  S  S  S  S  S  S
|-13p10----------10-13p=8-----------8-12p=8-------|
|-------10----10----------10----10-----------8----|
|----------10----------------10-----------------9-|
|-------------------------------------------------|
|-------------------------------------------------|
|-------------------------------------------------|


  Bb5                  G5                A5
 9/8
   Q.                   Q.                Q.
   |                    |                 |
   /                    /                 /

   |--3--|                                |--3--|
   S  S  S  S  S  S  S  S  S  S  S  S  S  S  S  S  S  S  S  S
|-13h18p13----------13-18p15----------15-12h17p12----------12--|
|----------15----15----------15----15-------------14----14-----|
|-------------15----------------15-------------------14--------|
|--------------------------------------------------------------|
|--------------------------------------------------------------|
|--------------------------------------------------------------|
|
|  |--3--|                                |--3--|
|  S  S  S  S  S  S  S  S  S  S  S  S  S  S  S  S  S  S  S  S
|-10h13p10----------10-15p10----------10--9h12p=9-----------9--|
|----------11----11----------11----11-------------10----10-----|
|-------------10----------------12--------------------9--------|
|--------------------------------------------------------------|
|--------------------------------------------------------------|
|--------------------------------------------------------------|


  D5                F5         C5         D5           F5      Eb5
 7/8                                     8/8
   Q.                Q          Q          Q.          Q       Q.
   |                 |          |          |           |       |
   /                 /          /          /           /       /

   S  S  S  S  S  S  S S  S  S  S S S S    S S S S S S S S S S S S S S S S
|-13p10----------10-13p8-------12p8-----|-10p5-------5-8p5-----9p6-------6-|
|-------10----10---------10---------8---|------6---6-------6-------8---8---|
|----------10---------------10--------9-|--------7-----------5-------9-----|
|---------------------------------------|----------------------------------|
|---------------------------------------|----------------------------------|
|---------------------------------------|----------------------------------|
|
|  S  S  S  S  S  S  S S  S  S  S S S S    S S S S S S S S S S S S S S S S
|-10p=5-----------5--8p5--------8p3-----|--5p1-------1-5p1-----6p3-------3-|
|--------6-----6----------6---------5---|------3---3-------1-------5---5---|
|-----------7----------------5--------5-|--------2-----------2-------6-----|
|---------------------------------------|----------------------------------|
|---------------------------------------|----------------------------------|
|---------------------------------------|----------------------------------|


  D5                F5                C5
   Q.                Q.                Q
   |                 |                 |
   /                 /                 /

   S  S  S  S  S  S  S  S  S  S  S  S  S  S  S  S
|-13p10----------10-17p13----------13-20p15-------|
|-------10----10----------13----13----------17----|
|----------10----------------14----------------17-|
|-------------------------------------------------|
|-------------------------------------------------|
|-------------------------------------------------|
|
|  S  S  S  S  S  S  S  S  S  S  S  S  S  S  S  S
|-10p=5-----------5-13p=8-----------8-15p12-------|
|--------6-----6----------10----10----------13----|
|-----------7----------------10----------------12-|
|-------------------------------------------------|
|-------------------------------------------------|
|-------------------------------------------------|
|
|  W
|-------------------------------------------------|
|-------------------------------------------------|
|-------------------------------------------------|
|-------------------------------------------------|
|-------------------------------------------------|
|-------------------------------------------------|


  Bb5                  G5                   N.C.
 6/8                                       4/4
   Q.                   Q.                   W
   |                    |
   /                    /
[ Tab from: http://www.guitaretab.com/j/john-petrucci/86544.html ]
                                            Gtr I
                                             ~~
   |--3--|
   S  S  S  S  S  S  S  S  S  S  S  S  S     Q        +Q         H
|-13h18p13----------13-18p15----------15-||-12-------(12)\----------------------|
|----------15----15----------15----15----||-------------------------------------|
|-------------15----------------15-------||-------------------------------------|
|----------------------------------------||-------------------------------------|
|----------------------------------------||-------------------------------------|
|----------------------------------------||-------------------------------------|
|
|                                           Gtr II
|                                            ~~
|  |--3--|
|  S  S  S  S  S  S  S  S  S  S  S  S  S     Q        +Q         H
|-10h13p10----------10-15p10----------10-||-17-------(17)\----------------------|
|----------11----11----------11----11----||-------------------------------------|
|-------------10----------------12-------||-------------------------------------|
|----------------------------------------||-------------------------------------|
|----------------------------------------||-------------------------------------|
|----------------------------------------||-------------------------------------|
|
|                                           Gtrs III, IV
|  W                                         S S S S   S   S S S S S S S S E.
|----------------------------------------||-------------------------------------|
|----------------------------------------||-------------------------------------|
|----------------------------------------||-------------------------------------|
|----------------------------------------||----7-------7-----------7-----7------|
|----------------------------------------||--0---0-0-------0-0-0-0---0-0--------|
|----------------------------------------||-------------------------------------|


  Gtrs III, IV
  S S S S S S S S S S S S S S S S   S S S S S S S S S S S S S E.
|---------------------------------|------------------------------|
|---------------------------------|------------------------------|
|---------------------------------|------------------------------|
|---7-----7---------7-----8-7-5---|---7-----7---------7-----7----|
|-0---0-0---0-0-0-0---0-0-------7-|-0---0-0---0-0-0-0---0-0------|
|---------------------------------|------------------------------|


  S S S S S S S S S S S S S S S S
|-----------------------------------|
|-----------------------------------|
|-------------------------7-6-------|
|---7-----7---------7---------7-5---|
|-0---0-0---0-0-0-0---0-0-----------|
|-----------------------------------|


  S S S S S S S S S S S S S E.   S S S S S S S S S S S S S S S S
|------------------------------|---------------------------------|
|------------------------------|---------------------------------|
|------------------------------|---------------------------------|
|---7p5---7p5-------7p5---7----|---7p5---7p5-------7p5---8-7-5---|
|-0-----0-----7-5-0-----0------|-0-----0-----7-5-0-----0-------7-|
|------------------------------|---------------------------------|


  S S S S S S S S S S S S S E.
|-------------------------------|
|-------------------------------|
|-------------------------------|
|---7p5---7p5-------7p5---7-----|
|-0-----0-----7-5-0-----0-------|
|-------------------------------|


                                    Guitar Solo #1
                                     D5     F5         C5
                                     Gtrs III, IV
  W                                    Q.     E +Q       Q
                                       |      |  |       |
                                       /      /  /       /

                                     Gtr I
  S S S S S S S S S S S S S S S S      Q.     E  E.  S  +E   E
|---------------------------------||---------------------------|
|-------------------8p5-----------||-/10----/17-17--17-(17)-15-|
|-----------------------7-6-------||---------------------------|
|---7p5---7p5---------------7-5---||---------------------------|
|-0-----0-----7-5-0-------------7-||---------------------------|
|---------------------------------||---------------------------|


  D5    F5    Eb5              D5             F5               C5
   Q.   E +Q    Q                Q.            E +Q             Q
   |    |  |    |                |             |  |             |
   /    /  /    /                /             /  /             /

   ~~~
                                                  |--3--|
   H.          +E   E    a      +E.  +S   +E   E  S  S  S  +E   E  E
|---------------------|-----------------------------------------------|
|-18----------(18)\---|-20b22==(20)-(20)r(20)-18-17h18p17-(17)--------|
|---------------------|----------------------------------------19-17--|
|---------------------|-----------------------------------------------|
|---------------------|-----------------------------------------------|
|---------------------|-----------------------------------------------|


  Bb5    G5     A5       D5             F5                C5
    Q.    E +Q    Q      Q.              E    +Q           Q
    |     |  |    |      |               |     |           |
    /     /  /    /      /               /     /           /

    ~~~~     ~~                                            ~~
    Q.    E  Q   +Q      E   S  S  S  S  S  S  S  S  S  S  E E
|----------------------|----17-22-17---------------------------|
|--------17-17--(17)\--|-------------18-17-------20-18-17------|
|-\14------------------|-------------------19-17----------19---|
|----------------------|---------------------------------------|
|----------------------|---------------------------------------|
|----------------------|---------------------------------------|


  D5                 F5                   Eb5
   Q.                 E    +Q              Q
   |                  |     |              |
   /                  /     /              /

                                  |--3--|
   S   S  S  S  S  S  S  S  S  S  S  S  S  E     +E
|-13--17-13-------------------------------------------|
|-----------15-13----------------17p15p13-------------|
|-----------------15-14-12----------------14b15r(14)--|
|--------------------------15-14----------------------|
|-----------------------------------------------------|
|-----------------------------------------------------|


  D5                F5                   C5
   Q.                E          +Q        Q
   |                 |           |        |
   /                 /           /        /

   |--3--|
   S  S  S  E  +E    T  T  T  T  E  +E    T  T  T  T  E
|-15h17p13-15-(15)\-13h15p13p12-13-(13)\-18h20p18p17-18-|
|-------------------------------------------------------|
|-------------------------------------------------------|
|-------------------------------------------------------|
|-------------------------------------------------------|
|-------------------------------------------------------|


  Bb5                    C5                   A5
    Q.                   E     +Q             Q
    |                    |      |             |
    /                    /      /             /

                                |-3-|
   +E    T  T  T  T  S S S T T  S S S T T T T Q
|-(18)\-12h13p12p10-\8s5-------------------------|
|------------------------8s5h6h=8p6p5------------|
|-------------------------------------7p5--------|
|-----------------------------------------8p7----|
|---------------------------------------------7--|
|------------------------------------------------|


  D5      F5       C5        D5             F5     Eb5
  Q.        E +Q   Q          Q.             E +Q    Q
  |         |  |   |          |              |  |    |
  /         /  /   /          /              /  /    /

               ~~~                              ~~
  E   E E   E  Q.     S  S    E.  S  +E   a  E  Q   +E   S S
|--------------------------|---------------------------------|
|--------------------------|-10--10-(10)-10h11-10--(10)\-----|
|---------/10--9-----10-12-|-----------------------------x-x-|
|----\7-7------------------|-----------------------------x-x-|
|--------------------------|-----------------------------x-x-|
|--------------------------|---------------------------------|


  D5           F5       C5
    Q.           E +Q   Q
    |            |  |   |
    /            /  /   /

                    ~~~
    E.  S  +E    E  Q.     +E
|-------------------------------|
|-\10--11-(11)-/17-15-----(15)\-|
|-------------------------------|
|-------------------------------|
|-------------------------------|
|-------------------------------|


  Bb5         G5       A5        D5                   F5                               C5
   Q.           E +Q   Q         Q.                   E              +Q                  Q
   |            |  |   |         |                    |               |                  |
   /            /  /   /         /                    /               /                  /

                   ~~~
                                                 |-------3-------|    |--3--|            |---3---|
   E.  S  +E    E  Q.     +E     E   a      +E   E  E    a      +E    E  E  E  a        +E    E  E
|-----10-(10)-/17-15-----(15)\-|----------------17-20----------------17----------------------------|
|-11---------------------------|----20b22==(20)---------20b22==(20)r----17-20-18b18.5==(18)r-------|
|------------------------------|-------------------------------------------------------------19----|
|------------------------------|----------------------------------------------------------------19-|
|------------------------------|-------------------------------------------------------------------|
|------------------------------|-------------------------------------------------------------------|


  D5               F5        Eb5
   Q.               E    +Q  Q
   |                |     |  |
   /                /     /  /

                          ~~
   |---3---|
   E    E  E  S  S  S  S  H
|-------------------------------|
|------------------13-15-13-----|
|-17--\12-10-12s14--------------|
|-------------------------------|
|-------------------------------|
|-------------------------------|


  D5                                  F5                          C5
   Q.                                   E   +Q                     Q
   |                                    |    |                     |
   /                                    /    /                     /

   S   S  S  a      +S    S  S  a      +E    S  S  S  a      +S    S  S  a      +E
|-10------------------------10--------------10-----------------------10-15b17==(15)-|
|-----13p10--------------10----13b15==(13)r----13p10--------------10----------------|
|-----------12b14==(12)r-----------------------------12b14==(12)r-------------------|
|-----------------------------------------------------------------------------------|
|-----------------------------------------------------------------------------------|
|-----------------------------------------------------------------------------------|
|
|  W
|-----------------------------------------------------------------------------------|
|-----------------------------------------------------------------------------------|
|-----------------------------------------------------------------------------------|
|-----------------------------------------------------------------------------------|
|-----------------------------------------------------------------------------------|
|-----------------------------------------------------------------------------------|


  Bb5                      C5                G5         N.C.
    Q.                      E       +Q       Q          W
    |                       |        |       |
    /                       /        /       /

                                           ~~
                   |------6-------|
   +S   +S   S  S  S  S  S  S  S  S  S  S  Q    +E      H                H
|-(15)r(15)-13---------------------------------------||--------------------------------|
|--------------15-13---------------------------------||--------------------------------|
|--------------------14s12-10------------------------||--------------------------------|
|-----------------------------12p10------------------||--------------------------------|
|-----------------------------------12p10-10---(10)\-||--------------------------------|
|----------------------------------------------------||-5\-----------------------------|
|
|                                                       Gtrs III, IV
|   W                                                   S  S S S S S S S S S S S S E.
|----------------------------------------------------||--------------------------------|
|----------------------------------------------------||--------------------------------|
|----------------------------------------------------||--------------------------------|
|----------------------------------------------------||----7-----7---------7-----7-----|
|----------------------------------------------------||-0----0-0---0-0-0-0---0-0-------|
|----------------------------------------------------||--------------------------------|


  Gtrs III, IV
  S S S S S S S S S S S S S S S S   S S S S S S S S S S S S S E.
|---------------------------------|------------------------------|
|---------------------------------|------------------------------|
|---------------------------------|------------------------------|
|---7-----7---------7-----8-7-5---|---7-----7---------7-----7----|
|-0---0-0---0-0-0-0---0-0-------7-|-0---0-0---0-0-0-0---0-0------|
|---------------------------------|------------------------------|


  S S S S S S S S S S S S S S S S
|-----------------------------------|
|-----------------------------------|
|-------------------------7-6-------|
|---7-----7---------7---------7-5---|
|-0---0-0---0-0-0-0---0-0-----------|
|-----------------------------------|


  S S S S S S S S S S S S S E.   S S S S S S S S S S S S S S S S
|------------------------------|---------------------------------|
|------------------------------|---------------------------------|
|------------------------------|---------------------------------|
|---7p5---7p5-------7p5---7----|---7p5---7p5-------7p5---8-7-5---|
|-0-----0-----7-5-0-----0------|-0-----0-----7-5-0-----0-------7-|
|------------------------------|---------------------------------|


  S S S S S S S S S S S S S E.
|-------------------------------|
|-------------------------------|
|-------------------------------|
|---7p5---7p5-------7p5---7-----|
|-0-----0-----7-5-0-----0-------|
|-------------------------------|


                                    Guitar Solo #2
                                            D5                        F5               C5
                                     Gtrs III, IV
  W                                           Q.                       E         +Q    Q
                                              |                        |          |    |
                                              /                        /          /    /

                                     Gtr I
                                                                                  ~~~~~
  S S S S S S S S S S S S S S S S     a      +E.   a      +S   +S   S  E  a      +H
|---------------------------------||-21b22==(21)r-21b22==(21)-(21)r---21-21b22==(21)r-----|
|-------------------8p5-----------||------------------------------------------------------|
|-----------------------7-6-------||------------------------------------------------------|
|---7p5---7p5---------------7-5---||------------------------------------------------------|
|-0-----0-----7-5-0-------------7-||------------------------------------------------------|
|---------------------------------||------------------------------------------------------|


         D5                          F5                   Eb5
           Q.                        E            +Q        Q
           |                         |             |        |
           /                         /             /        /

                                                        ~~~~~~~
           |---3---|          |----3----|
   a      +E    E  E  a      +E    E    E  a      +E    E  +Q
|-20b22==(20)r-20-17--------------------------------------------|
|--------------------20b22==(20)r-20---18-20b22==(20)r-20-(20)--|
|---------------------------------------------------------------|
|---------------------------------------------------------------|
|---------------------------------------------------------------|
|---------------------------------------------------------------|


  D5             F5                     C5                   Bb5              G5      A5
    Q.             E   +Q                 Q                   Q.               E +Q   Q
    |              |    |                 |                   |                |  |   |
    /              /    /                 /                   /                /  /   /

                                                                                  ~~~
   +E   E  E      +E   +E    a      +E   +S    a      +E.     E      +E   +E   E  Q.     +E
|---------22b24==(22)-(22)r-22b24==(22)-(22)r-22b24==(22)r-|-22b25==(22)-(22)r22-22-----(22)\-|
|-(20)\----------------------------------------------------|----------------------------------|
|----------------------------------------------------------|----------------------------------|
|----------------------------------------------------------|----------------------------------|
|----------------------------------------------------------|----------------------------------|
|----------------------------------------------------------|----------------------------------|


  D5                          F5                         C5
   Q.                          E       +Q                 Q
   |                           |        |                 |
   /                           /        /                 /

   |-------6-------|  |------6-------|  |------6-------|  |------6-------|
   S   S  S  S  S  S  S  S  S  S  S  S  S  S  S  S  S  S  S  S  S  S  S  S
|-----16-17-20-17-16----16-17-20-17-16-20-17-16----16-17-20-17-16----16-17-|
|-18-----------------18-------------------------18----------------18-------|
|--------------------------------------------------------------------------|
|--------------------------------------------------------------------------|
|--------------------------------------------------------------------------|
|--------------------------------------------------------------------------|


  D5                          F5                         Eb5
   Q.                          E       +Q                 Q
   |                           |        |                 |
   /                           /        /                 /

   |-------6-------|  |------6-------|  |------6-------|  |------6-------|
   S   S  S  S  S  S  S  S  S  S  S  S  S  S  S  S  S  S  S  S  S  S  S  S
|-20--17-16-20-17-16----16-17-20-17-16----16-17-20-17-16-20-17-16----16-17-|
|--------------------18----------------18-------------------------18-------|
|--------------------------------------------------------------------------|
|--------------------------------------------------------------------------|
|--------------------------------------------------------------------------|
|--------------------------------------------------------------------------|


  D5                F5                C5
   Q.                E    +Q           Q
   |                 |     |           |
   /                 /     /           /

   S  S  S  S  S  S  S  S  S  S  S  S  S  S  S  S
|-20s15-10----------------------------------------|
|----------15-10-------15-10----------------------|
|----------------15-10-------14-10-------14-10----|
|----------------------------------14-10-------14-|
|-------------------------------------------------|
|-------------------------------------------------|


  Bb5                C5                A5
   Q.                 E    +Q           Q
   |                  |     |           |
   /                  /     /           /

                                        ~~
   S   S  S  S  S  S  S  S  S  S  S  S  Q
|------------------------------------------|
|------------------------------------------|
|------------------------------------------|
|-10-----------10--------------------------|
|-----15-10-------15-10-------15-10--------|
|-----------15----------15-10-------15-10--|


  D5                                   F5                                  C5
   Q.                                   E          +Q                       Q
   |                                    |           |                       |
   /                                    /           /                       /

                                                                                              T
                                                                                        |------6-------|
   T   T  T  T  T  T  T  T  T  T  T  T  T  T  T  T  T  T  T  T  T  T  T  T  T  T  T  T  T  T  T  T  T  T
|-----------------------------------------------------------------------------------17h18h20-22p20p18p17--|
|-----------------------------------------------------------------15-17-18-20-18-17-----------------------|
|-----------------------------------------------14-15-17-14-15-17-----------------------------------------|
|-----------------------------12-14-15-12-14-15-----------------------------------------------------------|
|-----------10-12-13-10-12-13-----------------------------------------------------------------------------|
|-10--12-13-----------------------------------------------------------------------------------------------|


  D5                                  F5                            Eb5
   Q.                                  E          +Q                 Q
   |                                   |           |                 |
   /                                   /           /                 /

                                                   |------6-------|  |------6-------|
   T  T  T  T  T  T  T  T  T  T  T  T  T  T  T  T  S  S  S  S  S  S  S  S  S  S  S  S
|-18h20p18p17--------------------------------------------------------------------------|
|-------------20-18-17-18-17-15--------------------------------------------------------|
|-------------------------------19-17-15-17-15-14--------------------------------------|
|-------------------------------------------------17-15-14-----------------------------|
|----------------------------------------------------------15-13-12-15-13-12-----------|
|----------------------------------------------------------------------------15-13-12--|


  D5                                F5                              C5
   Q.                               E          +Q                    Q
   |                                |           |                    |
   /                                /           /                    /

   |--------7---------|  |---------7---------|  |--------7--------|  |--------7--------|
   S   S  S  S  S  S  S  S  S  S  S    S  S  S  S  S  S  S  S  S  S  S  S  S  S  S  S  S
|----------------------------------------------------------------------------------------|
|-------------------------------------------------------------------------------13-15-17-|
|----------------------------------------------------12-14-12----------12-14-15----------|
|--------------------10-12-10---------------12-14-15----------15-14-15-------------------|
|-----------10-12-13----------13-12---13-15----------------------------------------------|
|-10--12-13------------------------------------------------------------------------------|


  Bb5                                G5                     A5
   Q.                                E        +Q             Q
   |                                 |         |             |
   /                                 /         /             /

                                               |----6----|   |------6-------|
   T   T  T  T  T  T  T  T  T  T T T T  T T T  S S  S S  E   S  S  S  S  S  S
|-----------------------------------------------------------------------------|
|-15--13-11-10-11-13-11-10----------------------------------------------------|
|--------------------------12-10-9-7-9-10-9-7---------------------------------|
|---------------------------------------------10-8-------------------10-12-14-|
|--------------------------------------------------10-8-----10-12-13----------|
|-------------------------------------------------------10\-------------------|


  D5                          F5                            C5
   Q.                          E       +Q                    Q
   |                           |        |                    |
   /                           /        /                    /

   |-------6-------|  |------6-------|  |--------7--------|  |--------7--------|
   S   S  S  S  S  S  S  S  S  S  S  S  S  S  S  S  S  S  S  S  S  S  S  S  S  S
|--------------------------------------------------------------13-17p13----13-17-|
|-10--------------10-------------10-------------10----------------------15-------|
|-----14p10----10----14p10----10----14p10----10----14p10----10-------------------|
|-----------12-------------12-------------12-------------12----------------------|
|--------------------------------------------------------------------------------|
|--------------------------------------------------------------------------------|


  D5                            F5          Eb5
   Q.                             E   +Q    Q
   |                              |    |    |
   /                              /    /    /

                                       ~~~~~
   |-------6--------|
   S   S  S   S  S  S  E  a      +E   +Q.      S  S
|-13--17p13/-22-17-17\---15b17==(15)-(15)r----17-17-|
|---------------------------------------------------|
|----------------------x----------------------------|
|---------------------------------------------------|
|---------------------------------------------------|
|---------------------------------------------------|


  D5                 F5                C5
   Q.                 E    +Q           Q
   |                  |     |           |
   /                  /     /           /

   S   S  S  S  S  S  S  S  S  S  S  S  S  S  S  S
|-17--20p17----17-22p17----17-19p17----17----------|
|-----------20----------20----------21----21-20-19-|
|--------------------------------------------------|
|--------------------------------------------------|
|--------------------------------------------------|
|--------------------------------------------------|


  Bb5                         C5                         A5
   Q.                          E       +Q                 Q
   |                           |        |                 |
   /                           /        /                 /

   |-------6-------|  |------6-------|  |------6-------|  |------6-------|
   S   S  S  S  S  S  S  S  S  S  S  S  S  S  S  S  S  S  S  S  S  S  S  S
|--------------------------------------------------------------------------||
|-18--19-20-17-18-19-16-17-18-15-16-17-14-15-16-13-14-15-12-13-14-11-12-13-||
|--------------------------------------------------------------------------||
|--------------------------------------------------------------------------||
|--------------------------------------------------------------------------||
|--------------------------------------------------------------------------||


  N.C.
 2/2
                               >
   ~~~~~~~~~~~~~~~~~~~~~~~~~~~~~~~
   W                          +W
|--------------------------|---------------------|
|-10-----------------------|-(10)----------------|
|--------------------------|---------------------|
|--------------------------|---------------------|
|--------------------------|---------------------|
|--------------------------|---------------------|
|
| Gtrs III, IV
|                                              ~
|  E E E E  E   E   q          E  E E E E E  E E
|--------------------------|---------------------|
|--------------------------|---------------------|
|--------------------------|---------------------|
|--------------------------|---------------------|
|--------5--4--------------|------------5-4-/8-7-|
|--3-5-6--------5-------|---3-5-6----------|
|
| Gtrs V, VI
|  Q   E E  E   E   E   E     +W
|--------0-----(0)-----(0)-|--(0)----------------|
|------3---(3)-----(3)-----|---------------------|
|--------------------------|---------------------|
|--------------------------|---------------------|
|--------------------------|---------------------|
|--------------------------|---------------------|


                         A5    Bb5 G5  F5G5  E5
   W                            W
|----------------------------|---------------------------|
|----------------------------|---------------------------|
|----------------------------|---------------------------|
|----------------------------|---------------------------|
|----------------------------|---------------------------|
|----------------------------|---------------------------|
|
| +E   E E E  E   E   E   E     E  E E E  E   E   E   E
|----------------------------|---------------------------|
|----------------------------|---------------------------|
|----------------------------|---------------------------|
|----------------------------|---------------------------|
|-(7)\-----5--4-----------7--|--8--5-x-3--5---2---x---x--|
|------3-6--------5---x---5--|--6--3-x-1--3---0---x---x--|
|
|  Q     E E  E   E   E   E    +Q    E E  E   E   E   E
|----------0-----(0)-----(0)-|-(0)-----0-----(0)-----(0)-|
|--------3---(3)-----(3)-----|-------6---(6)-----(6)-----|
|----------------------------|---------------------------|
|----------------------------|---------------------------|
|----------------------------|---------------------------|
|----------------------------|---------------------------|


  N.C.
  Gtrs III, IV
                                                ~
  E E  E E   E   E    E   E     E  E E E E E  E E
|----------------------------|--------------------|
|----------------------------|--------------------|
|----------------------------|--------------------|
|----------------------------|--------------------|
|--------5---4---------------|-----------5-4-/8-7-|
|-3-5--6---------5-----|--3-5-6----------|
|
| Gtr V
| Q    E E   E   E    E   E    +W
|--------0------(0)------(0)-|-(0)----------------|
|------3----(3)------(3)-----|--------------------|
|----------------------------|--------------------|
|----------------------------|--------------------|
|----------------------------|--------------------|
|----------------------------|--------------------|
|
| Gtr VI
| Q    E E   E   E    E   E    +W
|--------0------(0)------(0)-|-(0)----------------|
|-----15---(15)-----(15)-----|--------------------|
|----------------------------|--------------------|
|----------------------------|--------------------|
|----------------------------|--------------------|
|----------------------------|--------------------|


                                                      A5   Bb5
                                         PM        PM
  +E   E  E E   E   E    E   E     E  E  E E   E   E    E   E
|-------------------------------|------------------------------||
|-------------------------------|------------------------------||
|-------------------------------|------------------------------||
|-------------------------------|-/8--7------------------------||
|-(7)\----------5---4-----------|----------8---7--------7---8--||
|------3--5-6------------6---5--|--------0---------0----5---6--||
|
|  Q      E E   E   E    E   E    +Q     E E   E   E    E   E
|-----------0------(0)------(0)-|-(0)------0------(0)------(0)-||
|---------3----(3)------(3)-----|--------8----(8)------(8)-----||
|-------------------------------|------------------------------||
|-------------------------------|------------------------------||
|-------------------------------|------------------------------||
|-------------------------------|------------------------------||
|
|  Q      E E   E   E    E   E    +Q     E E   E   E    E   E
|-----------0------(0)------(0)-|-(0)------0------(0)------(0)-||
|--------15---(15)-----(15)-----|-------20---(20)-----(20)-----||
|-------------------------------|------------------------------||
|-------------------------------|------------------------------||
|-------------------------------|------------------------------||
|-------------------------------|------------------------------||


         N.C.
  Gtr III
                                                  ~~~~~~~~~
   a      +H        +E   +E   E  E    S  S  S  S  Q    +Q    E  E
|-15b17==(15)------(15)r(15)-12-13-|-12h13p12----12---(12)-----12-|
|----------------------------------|----------15------------15----|
|----------------------------------|------------------------------|
|----------------------------------|------------------------------|
|----------------------------------|------------------------------|
|----------------------------------|------------------------------|
|
| Gtr IV
|                                                 ~~~~~~~~~
|  a      +H        +E   +E   E  E    S  S  S  S  Q    +Q    E  E
|-10b12==(10)------(10)r(10)--9-10-|--9h10p=9-----9----(9)------9-|
|----------------------------------|----------11------------11----|
|----------------------------------|------------------------------|
|----------------------------------|------------------------------|
|----------------------------------|------------------------------|
|----------------------------------|------------------------------|
|
| Gtr I
|          E  Q  E   E    E   E  E    E     Q       E   E E  E  E
|----------------------------------|------------------------------|
|----------------------------------|------------------------------|
|-------------2------2h===3------0h|==2-----2-----------2h3-----0h|
|----------------------------------|------------------------------|
|----------0-----0------------0----|----------------0--------0----|
|----------------------------------|------------------------------|


         ~~~~~~~~~                 ~~~~~~~~~
   E  E  Q    +Q     E  E    E  E  Q    +Q      E  E
|-------------------------|---------------------------|
|-14-15-14---(14)--\10-11-|-10h11-10---(10)----11-\8--|
|-------------------------|---------------------------|
|-------------------------|---------------------------|
|-------------------------|---------------------------|
|-------------------------|---------------------------|
|
|        ~~~~~~~~~                 ~~~~~~~~~
|  E  E  Q    +Q     E  E    E  E  Q    +Q      E  E
|-------------------------|-------------------/10--6--|
|-10-11-10---(10)---\5--6-|--5h=6--5----(5)-----------|
|-------------------------|---------------------------|
|-------------------------|---------------------------|
|-------------------------|---------------------------|
|-------------------------|---------------------------|
|
|  E  Q    E   E E   E  E    E  E  E E   E  E   Q
|-------------------------|---------------------------|
|-------------------------|---------------------------|
|--2--2--------2h3------0h|==2------------------------|
|-------------------------|--------2h3------0h==2-----|
|----------0---------0----|-----0--------0------------|
|-------------------------|---------------------------|


   ~~~                      ~~
               |-3--|
   Q.     E +E S  S S Q     Q.     E Q     Q
|-------------------------|--------------------|
|-10-----\8-(8)8h10s8-6---|-5-----\3-3----/6---|
|-------------------------|--------------------|
|-------------------------|--------------------|
|-------------------------|--------------------|
|-------------------------|--------------------|
|
|  ~~~~~~~~~~~~~            ~~
|              |-3--|
|  Q.     E +E S  S S Q     Q.     E Q     Q
|--9-----\6-(6)6h=9s6-5---|--------------------|
|-------------------------|-8-----\6-6---/11---|
|-------------------------|--------------------|
|-------------------------|--------------------|
|-------------------------|--------------------|
|-------------------------|--------------------|
|
|  E  Q   E  E E      E E   E  Q   E E E   E E
|-------------------------|--------------------|
|-------------------------|--------------------|
|-----2------2h3--------0h|=2--2-----2h3-----0h|
|-------------------------|--------------------|
|--0------0-----------0---|--------0-------0---|
|-------------------------|--------------------|


   ~~~                   ~~~
   H.            E  E    H.            +Q
|---------------------|------------------------|
|--5-----------/10-11-|-10------------(10)\----|
|---------------------|------------------------|
|---------------------|------------------------|
|---------------------|------------------------|
|---------------------|------------------------|
|
|  ~~~                   ~~~
|  H.            E  E    H.            +Q
|--------------/12-13-|-12------------(12)\----|
|-10------------------|------------------------|
|---------------------|------------------------|
|---------------------|------------------------|
|---------------------|------------------------|
|---------------------|------------------------|
|
|  E  Q  E E E   E  E    E  E E E E E   Q
|---------------------|------------------------|
|---------------------|------------------------|
|--2--2----2h3------0h|==2---------------------|
|---------------------|-------2h3---0h==2------|
|--------0-------0----|-----0-----0------------|
|---------------------|------------------------|


         ~~~          ~~~
   S  S  E.  S  S  S  Q    S  S  S  S
|-------------------------------------|
|-15p11-14----------------------------|
|-----------15p12-15-14---15p12-14p12-|
|-------------------------------------|
|-------------------------------------|
|-------------------------------------|
|
|        ~~~          ~~~
|  S  S  E.  S  S  S  Q    S  S  S  S
|-------------------------------------|
|-18p15-17----------------------------|
|-----------19p15-19-18---19p15-18p15-|
|-------------------------------------|
|-------------------------------------|
|-------------------------------------|
|
|  E     Q      E     E E  E     E
|-------------------------------------|
|-------------------------------------|
|--------2------------2h3--------0h===|
|-------------------------------------|
|--0------------0----------0----------|
|-------------------------------------|


         ~~                                           ~~        ~~~
   S  S  Q   S  S  S  T  T  S  S  S  S  S  S    S  S  Q   S  S  Q    S  S  S  S
|-----------17p13-15-17p15p13----13----------|----18-17-------------------------|
|-----------------------------17----15-17-14-|-15--------18p15-17---17p14-15p14-|
|----12--------------------------------------|----------------------------------|
|-15----14-----------------------------------|----------------------------------|
|--------------------------------------------|----------------------------------|
|--------------------------------------------|----------------------------------|
|
|        ~~                                           ~~        ~~~
|  S  S  Q   S  S  S  T  T  S  S  S  S  S  S    S  S  Q   S  S  Q    S  S  S  S
|-----------21p17-18-21p18p17----17----------|----22-21-------------------------|
|-----------------------------20----18-20-17-|-18--------22p18-20---20p17-18p17-|
|----15--------------------------------------|----------------------------------|
|-19----17-----------------------------------|----------------------------------|
|--------------------------------------------|----------------------------------|
|--------------------------------------------|----------------------------------|
|
|  E     Q   E     E        E     E     E       E     Q   E     E E  E     E
|--------------------------------------------|----------------------------------|
|--------------------------------------------|----------------------------------|
|--2-----2---------2h=======3-----------0h===|==2-----2---------2h3--------0----|
|--------------------------------------------|----------------------------------|
|------------0--------------------0----------|------------0----------0----------|
|--------------------------------------------|----------------------------------|


         ~~                     ~~          ~~~          ~~~
   S  S  Q    S  S  S  S  S  S  Q     S  S  E.  S  S  S  Q    S  S  S  S
|----------------------------------|-------------------------18p15-17p15-|
|----14----------------------------|-15p11-14----------------------------|
|-15----14---15p12-14p12----12-----|-----------15p12-15-14---------------|
|------------------------15----14--|-------------------------------------|
|----------------------------------|-------------------------------------|
|----------------------------------|-------------------------------------|
|
|        ~~                     ~~          ~~~          ~~~
|  S  S  Q    S  S  S  S  S  S  Q     S  S  E.  S  S  S  Q    S  S  S  S
|----------------------------------|-------------------------22p18-21p18-|
|----17----------------------------|-18p15-17----------------------------|
|-19----18---19p15-18p15----15-----|-----------19p15-19-18---------------|
|------------------------19----17--|-------------------------------------|
|----------------------------------|-------------------------------------|
|----------------------------------|-------------------------------------|
|
|  E     E E  E     E     E     Q     E     Q      E     E E  E     E
|----------------------------------|-------------------------------------|
|----------------------------------|-------------------------------------|
|--2-------------------------------|--------2------------2h3--------0h===|
|----------2h=3-----------0h====2--|-------------------------------------|
|--------0----------0--------------|--0------------0----------0----------|
|----------------------------------|-------------------------------------|


         ~~
   S  S  Q   S  S  S  T  T  S  S  S  S  S  S
|----15-----22p18-21-22p21p18----18----------|
|-18----17--------------------22----20-22-18-|
|--------------------------------------------|
|--------------------------------------------|
|--------------------------------------------|
|--------------------------------------------|
|
|        ~~
|  S  S  Q   S  S  S  T  T  S  S  S  S  S  S
|----18-----18p15-17-18p17p15----15----------|
|-22----20--------------------18----17-18-15-|
|--------------------------------------------|
|--------------------------------------------|
|--------------------------------------------|
|--------------------------------------------|
|
|  E     Q   E     E        E     E     E
|--------------------------------------------|
|--------------------------------------------|
|--2-----2---------2h=======3-----------0----|
|--------------------------------------------|
|------------0--------------------0----------|
|--------------------------------------------|


         ~~        ~~~                      ~~                  ~~
   S  S  Q   S  S  Q    S  S  S  S    S  S  Q    S S  S S  S S  Q
|----22-21-------------------------|-------------------------------|
|-20--------23p20-22---20p17-18p17-|----17-------------------------|
|----------------------------------|-19----18---12p9-10p9----9-----|
|----------------------------------|----------------------12---11--|
|----------------------------------|-------------------------------|
|----------------------------------|-------------------------------|
|
|        ~~        ~~~                      ~~                  ~~
|  S  S  Q   S  S  Q    S  S  S  S    S  S  Q    S S  S S  S S  Q
|----18-17--15p12-13---12p=9-10p=9-|-----9-------------------------|
|-17-------------------------------|-11----10----------------------|
|----------------------------------|-------------9p6--7p6----6-----|
|----------------------------------|-----------------------8----7--|
|----------------------------------|-------------------------------|
|----------------------------------|-------------------------------|
|
|  E     Q   E     E E  E     E       E     E E  E    E    E    Q
|----------------------------------|-------------------------------|
|----------------------------------|-------------------------------|
|--2-----2---------2h3--------0h===|==2----------------------------|
|----------------------------------|----------2h=3---------0h===2--|
|------------0----------0----------|--------0---------0------------|
|----------------------------------|-------------------------------|


         ~~~          ~~~
   S  S  E.  S  S  S  Q    S  S  S  S
|--------------------------------------|
|-15p11-14-----------------------------|
|-----------15-14-15-12---15p12-14p12--|
|--------------------------------------|
|--------------------------------------|
|--------------------------------------|
|
|        ~~~          ~~~
|  S  S  E.  S  S  S  Q    S  S  S  S
|--------------------------------------|
|-18p15-17-----------------------------|
|-----------19-18-19-15---19p15-18p15--|
|--------------------------------------|
|--------------------------------------|
|--------------------------------------|
|
|  E     Q      E     E E  E     E
|--------------------------------------|
|--------------------------------------|
|--------2------------2h3--------0-----|
|--------------------------------------|
|--------------------------------------|
|--3------------3----------3-----------|


                     ~~~~~~~
                                              |--3--|
   S  S  S  S  S  S  E  +E  S  S  T  T  T  T  S  S  S
|--------------------------17-13-15h17p15p13----------|
|--------------------------------------------17p15p14-|
|----12-------12-14-12-(12)---------------------------|
|-15----14-15-----------------------------------------|
|-----------------------------------------------------|
|-----------------------------------------------------|
|
|                    ~~~~~~~
|                                             |--3--|
|  S  S  S  S  S  S  E  +E  S  S  T  T  T  T  S  S  S
|-----------------------------------------------------|
|--------------------------18-15-17h18p17p15----------|
|----15-------15-18-15-(15)------------------18p15p14-|
|-19----17-19-----------------------------------------|
|-----------------------------------------------------|
|-----------------------------------------------------|
|
|  E     Q           E   E  E     E           E
|-----------------------------------------------------|
|-----------------------------------------------------|
|--2-----2---------------2h=3-----------------0h======|
|-----------------------------------------------------|
|-----------------------------------------------------|
|--------------------3------------3-------------------|


                     ~~                                                                  ~~~
   |------6-------|
   S  S  S  S  S  S  Q    S  S  S  S  S  S  S  S    S  S  S  S  S  S  S  S  S  S  S  S   Q
|------------------------------------------------|-------------------------------------------||
|------------------------18-15-17-18-15-14-------|-------------------------------18-15-/22---||
|-15p14p12----------14---------------------17-16-|-15-14-------------18-17-16-15-------------||
|----------15p14p12------------------------------|-------17-16-15-14-------------------------||
|------------------------------------------------|-------------------------------------------||
|------------------------------------------------|-------------------------------------------||
|
|                    ~~                                                                  ~~~
|  |------6-------|
|  S  S  S  S  S  S  Q    S  S  S  S  S  S  S  S    S  S  S  S  S  S  S  S  S  S  S  S   Q
|------------------------17-13-15-17-15-13-------|-------------------------------17-13-/21---||
|------------------------------------------17-16-|-15-14-------------17-16-15-14-------------||
|------------------------------------------------|-------15-14-13-12-------------------------||
|-17p15p14----------15---------------------------|-------------------------------------------||
|----------17p16p13------------------------------|-------------------------------------------||
|------------------------------------------------|-------------------------------------------||
|
|  E        Q          E  E     E     E     E       E     E     E     E     E     E      Q
|------------------------------------------------|-------------------------------------------||
|------------------------------------------------|-------------------------------------------||
|--2--------2-------------2h====3-----------0h===|==2----------------------------------------||
|------------------------------------------------|--------------2h====3-----------0h=====2---||
|------------------------------------------------|-------------------------------------------||
|----------------------1--------------1----------|--------0-----------------0----------------||


  N.C.
  Gtrs III, IV
  E E  E E   E   E    Q         E  E E E E E  E E
|----------------------------|--------------------|
|----------------------------|--------------------|
|----------------------------|--------------------|
|----------------------------|--------------------|
|--------5---4---------------|-----------5-4-/8-7-|
|-3-5--6---------5--------|--3-5-6----------|
|
| Gtr V
| Q    E E   E   E    E   E    +W
|--------0------(0)------(0)-|-(0)----------------|
|------3----(3)------(3)-----|--------------------|
|----------------------------|--------------------|
|----------------------------|--------------------|
|----------------------------|--------------------|
|----------------------------|--------------------|
|
| Gtr VI
| Q    E E   E   E    E   E    +W
|--------0------(0)------(0)-|-(0)----------------|
|-----15---(15)-----(15)-----|--------------------|
|----------------------------|--------------------|
|----------------------------|--------------------|
|----------------------------|--------------------|
|----------------------------|--------------------|


                                          D.S.S. al Dbl. Coda
                            A5    Bb5 G5   F5  G5   E5
  +E   E  E E   E   E    E   E     E  E  E S S   E   E    E   E
|-------------------------------|--------------------------------||
|-------------------------------|--------------------------------||
|-------------------------------|--------------------------------||
|-------------------------------|--------------------------------||
|-(7)\------5---4------------7--|--8--5--x-3-3---5---2----x---2--||
|------3--6---------5----x---5--|--6--3--x-1-1---3---0----x---0--||
|
|  Q      E E   E   E    E   E    +Q     E E     E   E    E   E
|-----------0------(0)------(0)-|-(0)------0--------(0)------(0)-||
|---------3----(3)------(3)-----|--------6------(6)------(6)-----||
|-------------------------------|--------------------------------||
|-------------------------------|--------------------------------||
|-------------------------------|--------------------------------||
|-------------------------------|--------------------------------||
|
|  Q      E E   E   E    E   E    +Q     E E     E   E    E   E
|-----------0------(0)------(0)-|-(0)------0--------(0)------(0)-||
|--------15---(15)-----(15)-----|-------18-----(18)-----(18)-----||
|-------------------------------|--------------------------------||
|-------------------------------|--------------------------------||
|-------------------------------|--------------------------------||
|-------------------------------|--------------------------------||


  &&
  G5
 4/4
  Gtr I
                              >
   ~~~~~~~~~~~~~~~~~~~~~~~~~~~~~~
   W           +W            +W
|-22--------|-(22)--------|-(22)----||
|-----------|-------------|---------||
|-----------|-------------|---------||
|-----------|-------------|---------||
|-----------|-------------|---------||
|-----------|-------------|---------||
|
| Gtr III
|                             >
|  W           +W            +W
|-----------|-------------|---------||
|-----------|-------------|---------||
|-----------|-------------|---------||
|-----------|-------------|---------||
|-10--------|-(10)--------|-(10)----||
|-----------|-------------|---------||
|
| Gtr IV
|                             >
|  ~~~~~~~~~~~~~~~~~~~~~~~~~~~~~~
|  W           +W            +W
|-----------|-------------|---------||
|-15--------|-(15)--------|-(15)----||
|-12--------|-(12)--------|-(12)----||
|-----------|-------------|---------||
|-----------|-------------|---------||
|-----------|-------------|---------||


  N.C.
 2/2
  Gtr III
            PM    PM            PM    PM----|
  E   +E  E E E E E E     +E  E E E E E S S E
|-----------------------|---------------------|
|-----------------------|---------------------|
|-6b7r(6)-----------6b7r|=(6)-----------------|
|---------7---5h7-------|-----7---5h7---------|
|-----------0-----0-----|-------0-----0-4-5-7-|
|-----------------------|---------------------|


            PM    PM ~~~~~~~~
  E   +E  E E E E E  E   +E  E E E E E T T S E
|----------------------|-------------------------|
|----------------------|-------------------------|
|-6b7r(6)--------------|-------------------------|
|---------7---5h7---/7-|-(7)---------3-2h3p2-----|
|-----------0-----0----|-----0-1-4s5---------5---|
|----------------------|-------------------------|


                PM      PM                PM      PM------|
   E     +E   E E  E  E E  E       +E   E E  E  E E  S  S  E
|-------------------------------|----------------------------|
|-------------------------------|----------------------------|
|--6b7r==(6)---------------6b7r=|==(6)-----------------------|
|-------------7----5h=7---------|-------7----5h=7------------|
|---------------0-------0-------|---------0-------0--4--5--7-|
|-------------------------------|----------------------------|
|
| Gtr IV
|               PM      PM                PM      PM------|
|  E     +E   E E  E  E E  E       +E   E E  E  E E  S  S  E
|-------------------------------|----------------------------|
|-------------------------------|----------------------------|
|-18b19r(18)--------------18b19r|=(18)-----------------------|
|------------19---17h19---------|------19---17h19------------|
|---------------0-------0-------|---------0-------0-16-17-19-|
|-------------------------------|----------------------------|


                PM      PM  ~~~~~~~~~
                                                                     |--3--|
   E     +E   E E  E  E E   E    +Q    S  S  S  S  S  S  S  S  S  S  S  S  S
|-----------------------------|-----------------------------------------------||
|-----------------------------|-----------------------------------------------||
|--6b7r==(6)------------------|-----------------------------------------------||
|-------------7----5h=7----/7-|--(7)------------3--5--6--5--3-----------------||
|---------------0-------0-----|--------4--5--7-----------------7--5--4--5--7--||
|-----------------------------|-----------------------------------------------||
|
|               PM      PM  ~~~~~~~~~
|                                                                    |--3--|
|  E     +E   E E  E  E E   E    +Q    S  S  S  S  S  S  S  S  S  S  S  S  S
|-----------------------------|-----------------------------------------------||
|-----------------------------|-----------------------------------------------||
|-18b19r(18)------------------|-----------------------------------------------||
|------------19---17h19---/19-|-(19)-----------15-17-18-17-15-----------------||
|---------------0-------0-----|-------16-17-19----------------19-17-16-17-19--||
|-----------------------------|-----------------------------------------------||


 Guitar Solo #3
  N.C.
  Gtr I
   ~~~~~~~~~~~~~~~~~~~~~~~~~~~~~~~~~~~~
   W                               +Q     +Q       S S S S  S  S  S S
|-------------------------------|-------------------------------------|
|-------------------------------|-------------------------------------|
|-------------------------------|----------------------6-7p=6-----6-7-|
|--7----------------------------|--(7)----(7)\-----7-8---------8------|
|-------------------------------|-------------------------------------|
|-------------------------------|-------------------------------------|
|
| Gtr III
|               PM      PM                 PM          PM--------|
|  E     +E   E E  E  E E  E       +E   E  E    E  E   E    S  S  E
|-------------------------------|-------------------------------------|
|-------------------------------|-------------------------------------|
|--6b7r==(6)---------------6b7r=|==(6)--------------------------------|
|-------------7----5h=7---------|-------7-------5h=7------------------|
|---------------0-------0-------|----------0-----------0----4--5--7---|
|-------------------------------|-------------------------------------|
|
| Gtr IV
|               PM      PM                 PM          PM--------|
|  E     +E   E E  E  E E  E       +E   E  E    E  E   E    S  S  E
|-------------------------------|-------------------------------------|
|-------------------------------|-------------------------------------|
|-18b19r(18)--------------18b19r|=(18)--------------------------------|
|------------19---17h19---------|------19------17h19------------------|
|---------------0-------0-------|----------0-----------0---16-17-19---|
|-------------------------------|-------------------------------------|


   ~~~~~~~~~~~~~~~~~~~~~~~~~
   H.                   +E    S S     E.   E.     E  E.    E.           E
|---------------------------------|---------------------------------------|
|---------------------------------|---------------------------------------|
|--9--------------------(9)---7-9-|--10----9------7-\6--------------------|
|---------------------------------|------------------------8------------7-|
|---------------------------------|---------------------------------------|
|---------------------------------|---------------------------------------|
|
|               PM       PM   ~~~~~~~~~~~
|  E     +E   E E  E  E  E    E      +E  E     E  E  E   E     T  T  S  E
|---------------------------------|---------------------------------------|
|---------------------------------|---------------------------------------|
|--6b7r==(6)----------------------|---------------------------------------|
|-------------7----5h=7------/7---|--(7)-----------------3-----2h=3p=2----|
|---------------0--------0--------|------0-----1--4s=5------------------5-|
|---------------------------------|---------------------------------------|
|
|               PM       PM   ~~~~~~~~~~~
|  E     +E   E E  E  E  E    E      +E  E     E  E  E   E     T  T  S  E
|---------------------------------|---------------------------------------|
|---------------------------------|---------------------------------------|
|-18b19r(18)----------------------|---------------------------------------|
|------------19---17h19-----/19---|-(19)----------------15----14h15p14----|
|---------------0--------0--------|------0----13-16s17-----------------17-|
|---------------------------------|---------------------------------------|


                        ~~~~~~~~~~~~~~~~~~~~           ~~~
   S    S   S   S  Q   +H               +Q.       S S  Q.       E
|------------------------------------|----------------------------|
|------------------------------------|----------------------------|
|------------------------------------|----------------------------|
|--7h===8p==7------7---(7)-----------|--(7)-----------------------|
|--------------10--------------------|-----------10-8--7-------\5-|
|------------------------------------|----------------------------|
|
|                    PM      PM                PM         PM    PM
|  E       +E      E E  E  E E  E       +E   E E  E    E  E  E  E
|------------------------------------|----------------------------|
|------------------------------------|----------------------------|
|--6b7r====(6)------------------6b7r=|==(6)-----------------------|
|------------------7----5h=7---------|-------7----5h===7-----7----|
|--------------------0-------0-------|---------0----------0-----0-|
|------------------------------------|----------------------------|
|
|                    PM      PM                PM         PM    PM
|  E       +E      E E  E  E E  E       +E   E E  E    E  E  E  E
|------------------------------------|----------------------------|
|------------------------------------|----------------------------|
|-18b19r==(18)-----------------18b19r|=(18)-----------------------|
|-----------------19---17h19---------|------19---17h==19----19----|
|--------------------0-------0-------|---------0----------0-----0-|
|------------------------------------|----------------------------|


   ~~~~~~                ~~~~~~~~~~~~~
   Q.            E  E  E Q        +H         +H
|------------------------------|--------------------------|
|------------------------------|--------------------------|
|------------------------------|--------------------------|
|------------------------------|--------------------------|
|------------------------------|--------------------------|
|--9------------\5--5h=6-5-----|--(5)--------(5)\---------|
|
|                PM      PM  ~~~~~~~~~PM   PM     PM   PM
|  E     +E   E  E  E  E E   E    +E  E  E E  E   E  E E
|------------------------------|--------------------------|
|------------------------------|--------------------------|
|--6b7r==(6)-------------------|--------------------------|
|-------------7-----5h=7----/7-|--(7)----7----5------8----|
|----------------0-------0-----|------0----0------0----0--|
|------------------------------|--------------------------|
|
|                PM      PM  ~~~~~~~~~PM   PM     PM   PM
|  E     +E   E  E  E  E E   E    +E  E  E E  E   E  E E
|------------------------------|--------------------------|
|------------------------------|--------------------------|
|-18b19r(18)-------------------|--------------------------|
|------------19----17h19---/19-|-(19)---19---17-----20----|
|----------------0-------0-----|------0----0------0----0--|
|------------------------------|--------------------------|


                ~~~~~~~~                  ~~~~
                                                          |------3-------|
   E     +S  S  Q   +Q    +E     E        Q.       S  S   Q    Q         Q
|-------------------------------------|---------------------------------------|
|------------------------------/10----|--10-------10h11-/14---11-------\10----|
|--9b10r=(9)-7--9---(9)---(9)\--------|---------------------------------------|
|-------------------------------------|---------------------------------------|
|-------------------------------------|---------------------------------------|
|-------------------------------------|---------------------------------------|
|
|                 PM       PM                   PM          PM-------------|
|  E     +E     E E  E  E  E     E       +E   E E  E      E E     S  S      E
|-------------------------------------|---------------------------------------|
|-------------------------------------|---------------------------------------|
|--6b7r==(6)---------------------6b7r=|==(6)----------------------------------|
|---------------7----5h=7-------------|-------7----5h=====7-------------------|
|-----------------0--------0----------|---------0-----------0-----4--5------7-|
|-------------------------------------|---------------------------------------|
|
|                 PM       PM                   PM          PM-------------|
|  E     +E     E E  E  E  E     E       +E   E E  E      E E     S  S      E
|-------------------------------------|---------------------------------------|
|-------------------------------------|---------------------------------------|
|-18b19r(18)--------------------18b19r|=(18)----------------------------------|
|--------------19---17h19-------------|------19---17h====19-------------------|
|-----------------0--------0----------|---------0-----------0----16-17-----19-|
|-------------------------------------|---------------------------------------|


   ~~~~~~~~~~~~~~~~~~~
                                   |----3----|
   H              +E  E  E   E     Q    Q    Q     Q     E        E
|------------------------------|------------------------------------|
|--8--------------(8)--------8-|-/10----8----6----\5----------------|
|---------------------9-10-----|-------------------------7-------\3-|
|------------------------------|------------------------------------|
|------------------------------|------------------------------------|
|------------------------------|------------------------------------|
|
|               PM       PM  ~~~~~~~~~
|  E     +E   E E  E  E  E   E    +E  E    E    E  E  E  T  T  S  E
|------------------------------|------------------------------------|
|------------------------------|------------------------------------|
|--6b7r==(6)-------------------|------------------------------------|
|-------------7----5h=7-----/7-|--(7)-----------------3--2h=3p=2----|
|---------------0--------0-----|------0----1----4s=5--------------5-|
|------------------------------|------------------------------------|
|
|               PM       PM  ~~~~~~~~~
|  E     +E   E E  E  E  E   E    +E  E    E    E  E  E  T  T  S  E
|------------------------------|------------------------------------|
|------------------------------|------------------------------------|
|-18b19r(18)-------------------|------------------------------------|
|------------19---17h19----/19-|-(19)----------------15-14h15p14----|
|---------------0--------0-----|------0---13---16s17-------------17-|
|------------------------------|------------------------------------|


   ~~~~~~
   H.                   S S  S    S
|-----------------------------------|
|-----------------------5h6--5------|
|--6------------------------------7-|
|-----------------------------------|
|-----------------------------------|
|-----------------------------------|
|
|               PM      PM
|  E     +E   E E  E  E E    E
|-----------------------------------|
|-----------------------------------|
|--6b7r==(6)-----------------6b7r===|
|-------------7----5h=7-------------|
|---------------0-------0-----------|
|-----------------------------------|
|
|               PM      PM
|  E     +E   E E  E  E E    E
|-----------------------------------|
|-----------------------------------|
|-18b19r(18)----------------18b19r==|
|------------19---17h19-------------|
|---------------0-------0-----------|
|-----------------------------------|


                                                             ~~~~~~
                             |-3-|
    E   S S E  S S  S S S S  S S S S S    S    S   S  S  S S E +Q.       E
|--------------------------------------|--------------3--6-3-5-(5)----------|
|--------------------------------------|--2----5---3--------------------14--|
|---6---7p6------------------------3p2-|------------------------------------|
|-----------8--5-3--2--------2h3h5-----|------------------------------------|
|---------------------5-4-5------------|------------------------------------|
|--------------------------------------|------------------------------------|
|
|           PM          PM         PM                        PM      PM  ~~~
|  +E   E   E  E    E   E    E     E      E       +E     E   E  E  E E   E
|--------------------------------------|------------------------------------|
|--------------------------------------|------------------------------------|
|--(6)---------------------------------|--6b7r====(6)-----------------------|
|-------7------5h===7--------7---------|-----------------7------5h=7----/7--|
|-----------0-----------0----------0---|---------------------0-------0------|
|--------------------------------------|------------------------------------|
|
|           PM          PM         PM                        PM      PM  ~~~
|  +E   E   E  E    E   E    E     E      E       +E     E   E  E  E E   E
|--------------------------------------|------------------------------------|
|--------------------------------------|------------------------------------|
|-(18)---------------------------------|-18b19r==(18)-----------------------|
|------19-----17h==19-------19---------|----------------19-----17h19---/19--|
|-----------0-----------0----------0---|---------------------0-------0------|
|--------------------------------------|------------------------------------|


                                                                 /0.5\   /0.5\                             /0.5\
                           ~~~~~~~~~                                     ~~~~~~~
    |---3----|  |---3---|                                                       |--3--|
    E   E    E  E  E    E  Q    +E   +E      a  Q          +S   +S      +E      S  S  S  S  S  +E.        +S
|--------------15-18---17-15---(15)-(15)\-|-15s12---------(12)-(12)----(12)----12h13-12-11-12-(12)-------(12)----|
|--15--17---18----------------------------|----------------------------------------------------------------------|
|-----------------------------------------|----------------------------------------------------------------------|
|-----------------------------------------|----------------------------------------------------------------------|
|-----------------------------------------|----------------------------------------------------------------------|
|-----------------------------------------|----------------------------------------------------------------------|
|
|   ~~~~  PM         PM      PM       PM                                 PM                     PM
|  +E     E     E    E     E E   E    E         E     +E    E            E      E        E      E   E
|-----------------------------------------|----------------------------------------------------------------------|
|-----------------------------------------|----------------------------------------------------------------------|
|-----------------------------------------|-----6b7r==(6)-------------------------------------------6b7r=========|
|--(7)----------7----------5-----8--------|-----------------7-------------------5h=======7-----------------------|
|---------0----------0-------0--------0---|------------------------------0----------------------0----------------|
|-----------------------------------------|----------------------------------------------------------------------|
|
|   ~~~~  PM         PM      PM       PM                                 PM                     PM
|  +E     E     E    E     E E   E    E         E     +E    E            E      E        E      E   E
|-----------------------------------------|----------------------------------------------------------------------|
|-----------------------------------------|----------------------------------------------------------------------|
|-----------------------------------------|----18b19r(18)------------------------------------------18b19r========|
|-(19)---------19---------17----20--------|----------------19------------------17h======19-----------------------|
|---------0----------0-------0--------0---|------------------------------0----------------------0----------------|
|-----------------------------------------|----------------------------------------------------------------------|


    /1\          /1\      /1\   /1\  \0.5___|      \0.5____|       \0.5____|
    Q       S.  +S.      +S    +E    S      E      a      +S.      a      +S.
|--12------15--(15)-----(15)--(15)--15s====12----(12)----(12)----(12)----(12)--|
|------------------------------------------------------------------------------|
|------------------------------------------------------------------------------|
|------------------------------------------------------------------------------|
|------------------------------------------------------------------------------|
|------------------------------------------------------------------------------|
|
|           PM                       PM-----------------------|
|  +E    E  E         E         E    E         S           S   E
|------------------------------------------------------------------------------|
|------------------------------------------------------------------------------|
|--(6)-------------------------------------------------------------------------|
|--------7------------5h========7----------------------------------------------|
|-----------0------------------------0---------4-----------5---7---------------|
|------------------------------------------------------------------------------|
|
|           PM                       PM-----------------------|
|  +E    E  E         E         E    E         S           S   E
|------------------------------------------------------------------------------|
|------------------------------------------------------------------------------|
|-(18)-------------------------------------------------------------------------|
|-------19-----------17h=======19----------------------------------------------|
|-----------0------------------------0--------16----------17--19---------------|
|------------------------------------------------------------------------------|


    \0.5____|      \0.5____|
                                                          ~~~~~~~~
    a      +S.     a      +S.       +E      E.    S S  E +E   +E
|-(12)----(12)---(12)----(12)------(12)----12----15s9--9-(9)--(9)-|
|-----------------------------------------------------------------|
|-----------------------------------------------------------------|
|-----------------------------------------------------------------|
|-----------------------------------------------------------------|
|-----------------------------------------------------------------|
|
|                                              PM         PM   ~~~~
|           E                  +E        E     E  E    E  E    E
|-----------------------------------------------------------------|
|-----------------------------------------------------------------|
|-----------6b7r===============(6)--------------------------------|
|----------------------------------------7--------5h===7------/7--|
|----------------------------------------------0----------0-------|
|-----------------------------------------------------------------|
|
|                                              PM         PM   ~~~~
|           E                  +E        E     E  E    E  E    E
|-----------------------------------------------------------------|
|-----------------------------------------------------------------|
|----------18b19r=============(18)--------------------------------|
|---------------------------------------19-------17h==19-----/19--|
|----------------------------------------------0----------0-------|
|-----------------------------------------------------------------|


                                                              /0.5\  /0.5\
           ~~~                            ~~~~~~~~~~~~               ~~~~~~              ~~~~~~
                                                                                  |-3-|
    S   S  Q.        +E.     E.          +E    +Q          E +E     +E.       S S T T T  E
|---9s=17-17--------(17)\----5-----------(5)-|-(5)----------------------------------------------|
|--------------------------------------------|-------------8-(8)----(8)p======6-6-5h6h8p=6------|
|--------------------------------------------|--------------------------------------------------|
|--------------------------------------------|--------------------------------------------------|
|--------------------------------------------|--------------------------------------------------|
|--------------------------------------------|--------------------------------------------------|
|
|~~~~~~                                                       PM                PM
|  +E      E   E  E   E    E     T  T  S  E     E     +E   E  E      E      E   E        E
|--------------------------------------------|--------------------------------------------------|
|--------------------------------------------|--------------------------------------------------|
|--------------------------------------------|--6b7r==(6)--------------------------------6b7r===|
|--(7)---------------------3-----2h=3p=2-----|-------------7---------5h=====7-------------------|
|----------0---1--4s==5-------------------5--|----------------0-----------------0---------------|
|--------------------------------------------|--------------------------------------------------|
|
|~~~~~~                                                       PM                PM
|  +E      E   E  E   E    E     T  T  S  E     E     +E   E  E      E      E   E        E
|--------------------------------------------|--------------------------------------------------|
|--------------------------------------------|--------------------------------------------------|
|--------------------------------------------|-18b19r(18)-------------------------------18b19r==|
|-(19)--------------------15----14h15p14-----|------------19--------17h====19-------------------|
|----------0--13-16s=17------------------17--|----------------0-----------------0---------------|
|--------------------------------------------|--------------------------------------------------|


                            ~~~
   +E   S S E  S S  S E.   +Q
|--------------------------------|
|--(6)--8s6-5--5h6--4-5----(5)---|
|--------------------------------|
|--------------------------------|
|--------------------------------|
|--------------------------------|
|
|           PM           PM    PM
|  +E   E   E  E    E    E  E  E
|--------------------------------|
|--------------------------------|
|--(6)---------------------------|
|-------7------5h===7-------7----|
|-----------0------------0-----0-|
|--------------------------------|
|
|           PM           PM    PM
|  +E   E   E  E    E    E  E  E
|--------------------------------|
|--------------------------------|
|-(18)---------------------------|
|------19-----17h==19------19----|
|-----------0------------0-----0-|
|--------------------------------|


                  /0.5\  /0.5\
                                           ~~~~~~~~~~~~~                  ~~~~~~~
                                                             |-3--|
   S    T T   E  +E     +E      S S  S  S  Q        +Q     E S  S S  S  S E  E E
|------------------------------------------------|-----------9h10p9--9h10-9-10-9-|
|--6----5p4---5--(5)----(5)-----6p5s10h11-10-----|-(10)---10---------------------|
|------------------------------------------------|-------------------------------|
|------------------------------------------------|-------------------------------|
|------------------------------------------------|-------------------------------|
|------------------------------------------------|-------------------------------|
|
|                        PM                PM  ~~~~~~~~~PM   PM           PM   PM
|  E         +E   E      E      E    E     E   E    +E  E  E E       E    E  E E
|------------------------------------------------|-------------------------------|
|------------------------------------------------|-------------------------------|
|--6b7r======(6)---------------------------------|-------------------------------|
|-----------------7-------------5h===7--------/7-|--(7)----7---------5-------8---|
|------------------------0-----------------0-----|------0----0------------0----0-|
|------------------------------------------------|-------------------------------|
|
|                        PM                PM  ~~~~~~~~~PM   PM           PM   PM
|  E         +E   E      E      E    E     E   E    +E  E  E E       E    E  E E
|------------------------------------------------|-------------------------------|
|------------------------------------------------|-------------------------------|
|-18b19r====(18)---------------------------------|-------------------------------|
|----------------19------------17h==19-------/19-|-(19)---19--------17------20---|
|------------------------0-----------------0-----|------0----0------------0----0-|
|------------------------------------------------|-------------------------------|


                            ~~~~~~~~~~~~~~~~~~~~~               ~~~
   a      +Q.            E  H               +E   +E   E   S  S  E.    S  E     S  S
|-15b17==(15)-----------15-15------------|-(15)r(15)\-5/-17-18-21----22-------22-24-|
|----------------------------------------|------------------------------------------|
|----------------------------------------|------------------------------------------|
|----------------------------------------|------------------------------------------|
|----------------------------------------|------------------------------------------|
|----------------------------------------|------------------------------------------|
|
|                        PM      PM                   PM           PM---------|
|          E     +E   E  E  E  E E  E       +E    E   E   E     E  E     S  S  E
|----------------------------------------|------------------------------------------|
|----------------------------------------|------------------------------------------|
|----------6b7r==(6)----------------6b7r=|==(6)-------------------------------------|
|---------------------7-----5h=7---------|--------7-------5h====7-------------------|
|------------------------0-------0-------|------------0------------0-----4--5--7----|
|----------------------------------------|------------------------------------------|
|
|                        PM      PM                   PM           PM---------|
|          E     +E   E  E  E  E E  E       +E    E   E   E     E  E     S  S  E
|----------------------------------------|------------------------------------------|
|----------------------------------------|------------------------------------------|
|---------18b19r(18)---------------18b19r|=(18)-------------------------------------|
|--------------------19----17h19---------|-------19------17h===19-------------------|
|------------------------0-------0-------|------------0------------0----16-17-19----|
|----------------------------------------|------------------------------------------|


                                   ~~~
   a      +Q           a   +E   E  H
|-24b25==(24)--------(24)r(24)-24-24----------|
|---------------------------------------------|
|---------------------------------------------|
|---------------------------------------------|
|---------------------------------------------|
|---------------------------------------------|
|
|                               PM      PM  ~~~
|          E     +E         E   E  E  E E   E
|---------------------------------------------|
|---------------------------------------------|
|----------6b7r==(6)--------------------------|
|---------------------------7------5h=7----/7-|
|-------------------------------0-------0-----|
|---------------------------------------------|
|
|                               PM      PM  ~~~
|          E     +E         E   E  E  E E   E
|---------------------------------------------|
|---------------------------------------------|
|---------18b19r(18)--------------------------|
|--------------------------19-----17h19---/19-|
|-------------------------------0-------0-----|
|---------------------------------------------|


    ~~~~                                                ~~~~
                                           |---3----|
   +H.                +E          S.  T    S     S  S   Q      T  T  T  T  E.    T  T  T  T  S  +E
|-(24)---------------(24)\-----------21-|-22----21-18--21-----21-22-21-18-21----21-22-21-18-21-(21)\--|
|---------------------------------------|-------------------------------------------------------------|
|---------------------------------------|-------------------------------------------------------------|
|---------------------------------------|-------------------------------------------------------------|
|---------------------------------------|-------------------------------------------------------------|
|---------------------------------------|-------------------------------------------------------------|
|
|   ~~~~                                                       PM                      PM
|  +E  E  E  E  E  E   T    T  S  E        E           +E   E  E           E  E        E         E
|---------------------------------------|-------------------------------------------------------------|
|---------------------------------------|-------------------------------------------------------------|
|---------------------------------------|--6b7r========(6)---------------------------------------6b7r=|
|--(7)-------------3---2h===3p=2--------|-------------------7--------------5h=7-----------------------|
|------0--1--4s=5-----------------5-----|----------------------0-----------------------0--------------|
|---------------------------------------|-------------------------------------------------------------|
|
|   ~~~~                                                       PM                      PM
|  +E  E  E  E  E  E   T    T  S  E        E           +E   E  E           E  E        E         E
|---------------------------------------|-------------------------------------------------------------|
|---------------------------------------|-------------------------------------------------------------|
|---------------------------------------|-18b19r======(18)--------------------------------------18b19r|
|-(19)------------15--14h==15p14--------|------------------19-------------17h19-----------------------|
|------0-13-16s17----------------17-----|----------------------0-----------------------0--------------|
|---------------------------------------|-------------------------------------------------------------|


           |--3--|     |--3--|
    S.  T  S  S  S  E  S  S  S  S  S  +E    T  T  T T  T  T  T T
|------17-18-17-15-17-17-18-17-15-17-(17)\-10-12-10-9------------|
|-----------------------------------------------------10-11-10-8-|
|----------------------------------------------------------------|
|----------------------------------------------------------------|
|----------------------------------------------------------------|
|----------------------------------------------------------------|
|
|                   PM                 PM              PM
|  +E      E        E  E        E      E    E          E
|----------------------------------------------------------------|
|----------------------------------------------------------------|
|--(6)-----------------------------------------------------------|
|----------7-----------5h=======7-----------7--------------------|
|-------------------0------------------0---------------0---------|
|----------------------------------------------------------------|
|
|                   PM                 PM              PM
|  +E      E        E  E        E      E    E          E
|----------------------------------------------------------------|
|----------------------------------------------------------------|
|-(18)-----------------------------------------------------------|
|---------19----------17h======19----------19--------------------|
|-------------------0------------------0---------------0---------|
|----------------------------------------------------------------|


   |-----------7-----------|  |-------7-------|  |------7-------| |-----6-----|
   S     S  S S       S S  S  S  S S  S   S S S  S S S S    S S S S S S   S S S
|-------------------------------------------------------------------------------|
|-10----11-10-8---------8-10-11-10-8--------------------------------------------|
|--------------------10--------------10---9-7-9--7-6-9-7----6---6-7-9-7---6-----|
|-------------------------------------------------------------8-------------8-7-|
|-------------------------------------------------------------------------------|
|-------------------------------------------------------------------------------|
|
|                                       PM                        PM      ~~~
|  E             +E           E         E        E        E       E       E
|-------------------------------------------------------------------------------|
|-------------------------------------------------------------------------------|
|--6b7r==========(6)------------------------------------------------------------|
|-----------------------------7------------------5h=======7--------------/7-----|
|---------------------------------------0-------------------------0-------------|
|-------------------------------------------------------------------------------|
|
|                                       PM                        PM      ~~~
|  E             +E           E         E        E        E       E       E
|-------------------------------------------------------------------------------|
|-------------------------------------------------------------------------------|
|-18b19r========(18)------------------------------------------------------------|
|----------------------------19-----------------17h======19-------------/19-----|
|---------------------------------------0-------------------------0-------------|
|-------------------------------------------------------------------------------|


    |------7-------|  |------7------|  |----6----|  |----6----|
    S  S S S   S S S  S S S S   S S S  S S S S S S  S S S S S S
|----------------------------------------------------------------||
|----------------------------------------------------------------||
|----------------------------------------------------------------||
|---5--8-7-5----------7-8-7-5------------------------------------||
|--------------8-7-5------------7-5-4--7-5-4---4-5--4------------||
|--------------------------------------------6--------6-5-6-5-3--||
|
|   ~~~~     PM               PM             PM           PM
|  +E        E        E       E        E     E      E     E
|----------------------------------------------------------------||
|----------------------------------------------------------------||
|----------------------------------------------------------------||
|--(7)----------------7----------------5------------8------------||
|------------0----------------0--------------0------------0------||
|----------------------------------------------------------------||
|
|   ~~~~     PM               PM             PM           PM
|  +E        E        E       E        E     E      E     E
|----------------------------------------------------------------||
|----------------------------------------------------------------||
|----------------------------------------------------------------||
|-(19)---------------19---------------17-----------20------------||
|------------0----------------0--------------0------------0------||
|----------------------------------------------------------------||


   Outro
    N.C.
     S     S   S  S  S S  S  S  S S  S S  S S  S    S
||--13----12--10--0--9-0-12-10--9-0--6-0-10-9--6----0-|
||o---------------------------------------------------|
||----------------------------------------------------|
||----------------------------------------------------|
||o---------------------------------------------------|
||----------------------------------------------------|
|
|                         PM              PM
|    E        +E     E    E     E    E    E    E
||----------------------------------------------------|
||o---------------------------------------------------|
||---6b7r=====(6)------------------------------6b7r===|
||-------------------7----------5h===7----------------|
||o-----------------------0---------------0-----------|
||----------------------------------------------------|
|
|                         PM              PM
|    E        +E     E    E     E    E    E    E
||----------------------------------------------------|
||o---------------------------------------------------|
||--18b19r===(18)-----------------------------18b19r==|
||------------------19---------17h==19----------------|
||o-----------------------0---------------0-----------|
||----------------------------------------------------|


    S   S  S S S S  S  S  S S  S S  S  S  S S
|--13--12-10-0-9-0-15-13-12-0-17-0-18-17-15-0--|
|----------------------------------------------|
|----------------------------------------------|
|----------------------------------------------|
|----------------------------------------------|
|----------------------------------------------|
|
|              PM              PM--------|
|  +E      E   E    E     E    E    S  S  E
|----------------------------------------------|
|----------------------------------------------|
|--(6)-----------------------------------------|
|----------7--------5h====7--------------------|
|--------------0---------------0----4--5--7----|
|----------------------------------------------|
|
|              PM              PM--------|
|  +E      E   E    E     E    E    S  S  E
|----------------------------------------------|
|----------------------------------------------|
|-(18)-----------------------------------------|
|---------19-------17h===19--------------------|
|--------------0---------------0---16-17-19----|
|----------------------------------------------|


   S     S   S  S  S S  S  S  S S  S S  S S   S S
|-13----12--10--0--9-0-12-10--9-0--6-0-10-9---6-0-|
|-------------------------------------------------|
|-------------------------------------------------|
|-------------------------------------------------|
|-------------------------------------------------|
|-------------------------------------------------|
|
|                       PM              PM    ~~~~~
|  E        +E     E    E     E    E    E     E
|-------------------------------------------------|
|-------------------------------------------------|
|--6b7r=====(6)-----------------------------------|
|------------------7----------5h===7---------/7---|
|-----------------------0---------------0---------|
|-------------------------------------------------|
|
|                       PM              PM    ~~~~~
|  E        +E     E    E     E    E    E     E
|-------------------------------------------------|
|-------------------------------------------------|
|-18b19r===(18)-----------------------------------|
|-----------------19---------17h==19--------/19---|
|-----------------------0---------------0---------|
|-------------------------------------------------|


    S   S  S S  S  S  S S  S  S  S S  S     S  S S
|--13--12-10-0-15-13-12-0-17-15-13-0-18----17-15-0--|
|---------------------------------------------------|
|---------------------------------------------------|
|---------------------------------------------------|
|---------------------------------------------------|
|---------------------------------------------------|
|
|~~~~~~
|  +E      E    E     E    E     E    T  T  S  E
|---------------------------------------------------|
|---------------------------------------------------|
|---------------------------------------------------|
|--(7)---------------------------3----2h=3p=2-------|
|----------0----1-----4s===5-------------------5----|
|---------------------------------------------------|
|
|~~~~~~
|  +E      E    E     E    E     E    T  T  S  E
|---------------------------------------------------|
|---------------------------------------------------|
|---------------------------------------------------|
|-(19)--------------------------15---14h15p14-------|
|----------0---13----16s==17------------------17----|
|---------------------------------------------------|


   S     S   S  S  S S  S  S  S S  S S  S S  S    S
|-13----12--10--0--9-0-12-10--9-0--6-0-10-9--6----0-|
|---------------------------------------------------|
|---------------------------------------------------|
|---------------------------------------------------|
|---------------------------------------------------|
|---------------------------------------------------|
|
|                       PM              PM
|  E        +E     E    E     E    E    E    E
|---------------------------------------------------|
|---------------------------------------------------|
|--6b7r=====(6)------------------------------6b7r===|
|------------------7----------5h===7----------------|
|-----------------------0---------------0-----------|
|---------------------------------------------------|
|
|                       PM              PM
|  E        +E     E    E     E    E    E    E
|---------------------------------------------------|
|---------------------------------------------------|
|-18b19r===(18)-----------------------------18b19r==|
|-----------------19---------17h==19----------------|
|-----------------------0---------------0-----------|
|---------------------------------------------------|


    S   S  S S S S  S  S  S S  S S  S  S  S S
|--13--12-10-0-9-0-15-13-12-0-17-0-18-17-15-0-|
|---------------------------------------------|
|---------------------------------------------|
|---------------------------------------------|
|---------------------------------------------|
|---------------------------------------------|
|
|              PM              PM         PM
|  +E      E   E    E     E    E    E     E
|---------------------------------------------|
|---------------------------------------------|
|--(6)----------------------------------------|
|----------7--------5h====7---------7---------|
|--------------0---------------0----------0---|
|---------------------------------------------|
|
|              PM              PM         PM
|  +E      E   E    E     E    E    E     E
|---------------------------------------------|
|---------------------------------------------|
|-(18)----------------------------------------|
|---------19-------17h===19--------19---------|
|--------------0---------------0----------0---|
|---------------------------------------------|


   S     S   S  S  S S  S  S  S S  S S  S S   S S
|-13----12--10--0--9-0-12-10--9-0--6-0-10-9---6-0-|
|-------------------------------------------------|
|-------------------------------------------------|
|-------------------------------------------------|
|-------------------------------------------------|
|-------------------------------------------------|
|
|                       PM              PM    ~~~~~
|  E        +E     E    E     E    E    E     E
|-------------------------------------------------|
|-------------------------------------------------|
|--6b7r=====(6)-----------------------------------|
|------------------7----------5h===7---------/7---|
|-----------------------0---------------0---------|
|-------------------------------------------------|
|
|                       PM              PM    ~~~~~
|  E        +E     E    E     E    E    E     E
|-------------------------------------------------|
|-------------------------------------------------|
|-18b19r===(18)-----------------------------------|
|-----------------19---------17h==19--------/19---|
|-----------------------0---------------0---------|
|-------------------------------------------------|


    S   S  S S  S  S  S S  S  S  S S  S  S  S S  3x
|--13--12-10-0-15-13-12-0-17-15-13-0-18-17-15-0--||
|-----------------------------------------------o||
|------------------------------------------------||
|------------------------------------------------||
|-----------------------------------------------o||
|------------------------------------------------||
|
|~~~~~~    PM         PM         PM         PM
|  +E      E    E     E    E     E    E     E    3x
|------------------------------------------------||
|-----------------------------------------------o||
|------------------------------------------------||
|--(7)----------7----------5----------8----------||
|----------0----------0----------0----------0---o||
|------------------------------------------------||
|
|~~~~~~    PM         PM         PM         PM
|  +E      E    E     E    E     E    E     E    3x
|------------------------------------------------||
|-----------------------------------------------o||
|------------------------------------------------||
|-(19)---------19---------17---------20----------||
|----------0----------0----------0----------0---o||
|------------------------------------------------||




--------------------------------------------------------------------------------


Duration Legend
---------------
W - whole; H - half; Q - quarter; E - 8th; S - 16th; T - 32nd; X - 64th; a - acciaccatura
+ - note tied to previous; . - note dotted; .. - note double dotted
Uncapitalized letters represent notes that are staccato (1/2 duration)
Irregular groupings are notated above the duration line
Duration letters will always appear directly above the note/fret number it represents the
duration for.  Duration letters with no fret number below them represent rests.  Multi-
bar rests are notated in the form Wxn, where n is the number of bars to rest for.  Low
melody durations appear below the staff

Tablature Legend
----------------
 h   - hammer-on
 p   - pull-off
 b   - bend
 pb  - pre-bend
 r   - bend release (if no number after the r, then release immediately)
 /\  - slide into or out of (from/to "nowhere")
 s   - legato slide
 S   - shift slide
 - natural harmonic
[n]  - artificial harmonic
n(n) - tapped harmonic
 ~   - vibrato
 tr  - trill
 T   - tap
 TP  - trem. picking
 PM  - palm muting
\n/  - tremolo bar dip; n = amount to dip
 \n  - tremolo bar down
 n/  - tremolo bar up
/n\  - tremolo bar inverted dip
 =   - hold bend; also acts as connecting device for hammers/pulls
 <> - volume swell (louder/softer)
 x   - on rhythm slash represents muted slash
 o   - on rhythm slash represents single note slash

Misc Legend
-----------
 |  - bar
||  - double bar
||o - repeat start
o|| - repeat end
*|  - double bar (ending)
 :  - bar (freetime)
 $  - Segno
 &  - Coda
Tempo markers -  = BPM(8/16=s8/s16), where s8 = swing 8ths, s16 = swing 16ths


Related for Animate Inanimate tab
Advertisement will be closed in 10 seconds