Song name
# A B C D E F G H I J K L M N O P Q R S T U V W X Y Z

John Philip Sousa - Stars And Stripes Forever tab

Time signature - 3/4

Tuning - E A D G B E

   |  .  |  .     |  .  |  .     |  .  |  .     |  .  |  .  
|--------------|--------------|--------------|--------------|
|-----------3--|--3-----1--0--|--0--------0--|--0-----------|
|--------------|--------------|--------3-----|--------------|
|--------------|--------0-----|--------0-----|--------0-----|
|--------------|--------------|--------------|--------------|
|--------------|--3-----------|--3-----------|--3-----------|

   |  .  |  .     |  .  |  .     |  .  |  .     |  .  |  .  
|--------------|--------------|--------------|--------------|
|-----------0--|--0--------0--|--3-----0--3--|--1-----------|
|--------3-----|--------3-----|--------------|--------------|
|--------0-----|--------0-----|--------0-----|--------0-----|
|--------------|--------------|--------------|--0-----------|
|--3-----------|--3-----------|--3-----------|--------------|

   |  .  |  .     |  .  |  .     |  .  |  .     |  .  |  .  
|--------------|--------------|--------------|--------------|
|--------------|--------------|--------------|--1-----------|
|--2-----2-----|--2-----1--2--|--2-----1--2--|--------------|
|--------0-----|--------0-----|--------0-----|--------------|
|--------------|--------------|--0-----------|--------0-----|
|--2-----------|--2-----------|--------------|--2-----------|

   |  .  |  .     |  .  |  .     |  .  |  .     |  .  |  .  
|--------------|--------------|--0--------0--|--------------|
|--------0-----|--0-----3-----|--------------|--------------|
|-----------2--|--------------|--------------|--2-----------|
|--0-----------|-----------0--|--------2-----|--0-----------|
|--------0-----|--------------|--3-----------|--------3-----|
|--------------|--3-----------|--------------|--------------|

   |  .  |  .     |  .  |  .     |  .  |  .     |  .  |  .  
|--------------|--------------|--------------|--------------|
|--------3-----|--3-----1--0--|--0--------0--|--0-----------|
|--------------|--------------|--------3-----|--------------|
|--------------|--------------|--------0-----|--------0-----|
|--2-----0-----|--------------|--------------|--------------|
|--------------|--3-----------|--3-----------|--3-----------|

   |  .  |  .     |  .  |  .     |  .  |  .     |  .  |  .  
|--------------|--------------|--------------|--------------|
|-----------0--|--0--------0--|--1--0--------|--------------|
|--------3-----|--------3-----|--------2-----|--2-----------|
|--------0-----|--------1-----|-----------4--|--------------|
|--------------|--------------|--2-----------|--------2-----|
|--3-----------|--2-----------|--------------|--0-----------|

   |  .  |  .     |  .  |  .     |  .  |  .     |  .  |  .  
|--------------|--------------|--------------|--3-----------|
|--------------|--------------|--------------|--------------|
|--0-----0-----|--0--------0--|--3-----2--0--|--------0-----|
|--2-----------|--1----4------|--------------|--0-----------|
|--------------|--------------|--4-----------|--------------|
|--------------|--------------|--------------|--------------|

   |  .  |  .     |  .  |  .     |  .  |  .     |  .  |  .     |  .  |  .
|--------------|--------------|--------------|--------------|-------------||
|-----------0--|--3--------0--|--3--------0--|--------------|-------------||
|-----0--2-----|-----0--2-----|--------------|--2-----------|--0----------||
|--------------|--0-----------|-----0--2-----|--------0-----|-------------||
|--2-----------|--------------|--------------|--------------|-------------||
|--------------|--------------|--------------|--------------|--3----------||


Tabbed by Hashim Al-Daghistani - classical_guitar_method@hotmail.com
Tap to rate this tab
 
# A B C D E F G H I J K L M N O P Q R S T U V W X Y Z