Song name
# A B C D E F G H I J K L M N O P Q R S T U V W X Y Z

John Ralston - Gone Gone Gone tab

Gone Gone Gone
Jon Ralston
BY jON pULSIPHER

easy to play enjoi

Capo on 1

*-let ring

Intro
e-------0----3----3---------0----3----3----2----3----5----7----2----5*---|
B-3--------------------3-------------------------------------------------|
G------------------------------------------------------------------------|
D--000---000--000--000--000--000--000--000--000--000--000--000--000------|
A------------------------------------------------------------------------|
E------------------------------------------------------------------------|


(determine your own strumming pattern)

Verse
e--X----0----3----3-|
B--3----3----3----3-|
G--2----2----2----2-| (X2)
D--0----0----0----0-|
A--X----X----X----X-|
E--X----X----X----X-|

e--2----3----5----5--|
B--3----3----3----3--|
G--2----2----2----2--|
D--0----0----0----0--|
A--X----X----X----X--|
E--X----X----X----X--|
JESS BULLOCK IS THE MOST BEAUTIFUL GIRL IN THE WORLD...

e--7----2----5----5--|
B--0----3----3----3--|
G--0----2----2----2--|
D--0----0----0----0--|
A--X----X----X----X--|
E--X----X----X----X--|


Chorus

(part 1)
e--X----X----X----X--|
B--0----2----3----5--|
G--2----2----2----2--|
D--0----0----0----0--|
A--X----X----X----X--|
E--X----X----X----X--|

(part 2)
e--X----X----X----X--|
B--0----0----0----2--|
G--2----2----2----2--|
D--0----0----0----0--|
A--X----X----X----X--|
E--X----X----X----X--|

REPEAT THESE TWO THREE TIMES AND ON THE THIRD TIME FOR PART 2 PLAY THE FOLLOWING ALL 
TIMES:

e--X----|
B--0----|
G--2----|
D--0----|
A--X----|
E--X----|

THAT IS THAT THE REST IS LOGIC.  IF YOU ARE TOO DUMB TO GET THE REST YOU SHOULDNT BE 
GUITAR...
Tap to rate this tab
# A B C D E F G H I J K L M N O P Q R S T U V W X Y Z